Chimaira - Severed Chords & Tabs

 

Severed Chords & Tabs

Chimaira Chords & Tabs

Version: 1 Type: Tab 0 ratings
1 star 2 stars 3 stars 4 stars 5 stars
comments

Severed Tab

Severed

/ = slide



||----------------------------------------------------||
||----------------------------------------------------||
||----------------------------------------------------||
||----------------------------------------------------||
||----------------------------------------------------||
||--4-4-4-4--3------4-4-4-4--3-----4-4-3---4-4-3------||
||--4-4-4-4--3------4-4-4-4--3-----4-4-3---4-4-3------||



||--------------------------------------------------------||
||--------------------------------------------------------||
||--------------------------------------------------------||
||--------------------------------------------------------||
||--------------------------------------------------------||
||---0-0-0---0-0-----0-0-0---0-0-----4-3----4-3-----------||
||---0-0-0---0-0-----0-0-0---0-0-----4-3----4-3-----------||

[ Tab from: http://www.guitartabs.cc/tabs/c/chimaira/severed_tab.html ]
||----------------------------------------------------||
||----------------------------------------------------||
||----------------------------------------------------||
||----------------------------------------------------||
||----------------------------------------------------||
||----------------------------------------------------||
||-0-1----0-1----4--1--0--1---------------------------||



||---------------------------------------------||
||---------------------------------------------||
||---------------------------------------------||
||---------------------------------------------||
||---------------------------------------------||
||--0-0-0----0-0-0-----0-----0----0----0-------||
||--0-0-0----0-0-0-----0-----0----0----0-------||


||--------------------------------------------------||
||--------------------------------------------------||
||--------------------------------------------------||
||---7--7-7--7b-7--7-7b--7--7--7b--7----------------||
||--------------------------------------------------||
||---5--5-5--5b-5--5-5b--5--5--5b--5----------------||
||--------------------------------------------------||



||--------------------------------------------------------||
||--------------------------------------------------------||
||--------------------------------------------------------||
||---7-7--7/8---------------------------------------------||
||--------------------------------------------------------||
||---5-5--5/6-------0-0-0---0---0---0----0----------------||
||------------------0-0-0---0---0---0----0----------------||
 
Comments