Chimaira - Refuse To See Chords & Tabs

 

Refuse To See Chords & Tabs

Chimaira Chords & Tabs

Version: 1 Type: Tab 0 ratings
1 star 2 stars 3 stars 4 stars 5 stars
comments

Refuse To See Tab

Band: Chimaira
Title: Refuse To See
Tabber: Sqweeky

||--------------------------------------------------------||
||--------------------------------------------------------||
||--------------------------------------------------------||
||--(19)--------------------------------------------------||    probably just feedback but this works
||--------------------------------------------------------||
||--------------------------------------------------------||
||--------------------------------------------------------||


||----------------------------------------------------------------------------------------||
||----------------------------------------------------------------------------------------||
||----------------------------------------------------------------------------------------||
||----------------------------------------------------------------------------------------||
||----------------------------------------------------------------------------------------||
||---1---1---0--------0-0-0--6----4-------0-0-0---9---10-------0-0-0--------3p0-----1-----||
||---1---1---0--------0-0-0--6----4-------0-0-0---9---10-------0-0-0--------3p0-----1-----||



||--------------------------------------------------------||
||--------------------------------------------------------||
||--------------------------------------------------------||
||--------------------------------------------------------||
||--------------------------------------------------------||
||--0--------1-------3--------4-------3--------1----------||
||--0--------1-------3--------4-------3--------1----------||


||---------------------------------------------------------||
||---------------------------------------------------------||
||---------------------------------------------------------||
||---------------------------------------------------------||
||---------------------------------------------------------||
||--0--0--0-----1--1--1----3-3-3----4--4---3--3----1--1----||
||--0--0--0-----1--1--1----3-3-3----4--4---3--3----1--1----||




[ Tab from: http://www.guitartabs.cc/tabs/c/chimaira/refuse_to_see_tab.html ]
||-----------------------------------------------------------||
||-----------------------------------------------------------||
||-----------------------------------------------------------||
||-----------------------------------------------------------||
||-----------------------------------------------------------||
||--0--0--0--1----0-0--3----0-0--4-----0--0--3---1-----------||
||--0--0--0--1----0-0--3----0-0--4-----0--0--3---1-----------||

then back to the beginnning then....

||--------------------------------------------------||
||--------------------------------------------------||
||--------------------------------------------------||
||--------------------------------------------------||
||--------------------------------------------------||
||--0-0-0------0-0-0-----0-0-0-0-0-0-0--------------||
||--0-0-0------0-0-0-----0-0-0-0-0-0-0--------------||



||--------------------------------------------------||
||--------------------------------------------------||
||--------------------------------------------------||
||--------------------------------------------------||
||--------------------------------------------------||
||---0----1----3----4-------------------------------||
||---0----1----3----4------////////////-------------||


||------------------------------------------------------||
||------------------------------------------------------||
||------------------------------------------------------||
||------------------------------------------------------||
||------------------------------------------------------||
||--0--0--0--1----0-0--3----0-0--4-----0--0--5----------||
||--0--0--0--1----0-0--3----0-0--4-----0--0--5----------||


||------------------------------------------------------||
||------------------------------------------------------||
||------------------------------------------------------||
||------------------------------------------------------||
||------------------------------------------------------||
||---0-0-0---3-----0--0----3---4---5---4---3------------||
||---0-0-0---3-----0--0----3---4---5---4---3------------||
Comments