Chimaira - Pictures In The Gold Room Chords & Tabs

 

Pictures In The Gold Room Chords & Tabs

Chimaira Chords & Tabs

Version: 4 Type: Tab 0 ratings
1 star 2 stars 3 stars 4 stars 5 stars
comments

Pictures In The Gold Room Tab

   
 --------------------------------------------------------------------------		     
Pictures in the Gold Room - Chimaira
 -------------------------------------------------------------------------- 
Tabbed by: Haskeer
Email: hindson_chris@hotmail.com
[ Tab from: http://www.guitartabs.cc/tabs/c/chimaira/pictures_in_the_gold_room_tab_ver_4.html ]
Tuning: down half step
  (INTRO)
e|--------------------------|---|------------------------------------------|
B|--------------------------|---|------------------------------------------|
G|--------------------------|---|------------------------------------------|
D|-3-----3-----3-----3------|x 5|3--3-------3--3-------3--3-------333333333|
A|-3-1-1-3-1-1-3-1-1-3-11-11|---|2--3-11-11-2--3-11-11-2--3-11-11-222222222|
E|---1-1---1-1---1-1---11-11|---|-----11-11------11-11------11-11----------|
     * *   * *   * *                  ** **      ** **      ** ** ** ** **
 (Verse Riff 1) x 1
e|----------------------------|---|-------------------|-----------|--------|
B|----------------------------|---|-------------------|    x 5    |--------|
G|----------------------------|---|-------------------|-----------|--------|
D|-3-----3-----3--------------|x 3|3-----3-----3------|3-3-------3|33333333|
A|-3-1-1-3-1-1-3-1-1-2-3-4-3-2|---|3-1-1-3-1-1-3-11-11|2-3-11-11-2|22222222|
E|---1-1---1-1---1-1-2-3-4-3-2|---|--1-1---1-1---11-11|----11-11--|--------|
     * *   * *   * * * * * * *       * *   * *   ** **     ** **  ** ** **
 (verse riff 2) x 8              
e|-----------------------------|------------------------|
B|-----------------------------|------------------------|
G|-----------------------------|------------------------|
D|-3-----3-----3---------------|------------------------|
A|-3-1-1-3-1-1-3-1-1-2-3-4-3-2-|------------------------|
E|---1-1---1-1---1-1-2-3-4-3-2-|-4-4-4-4-4-4-6-3-3-3/11-|
     * *   * *   * * * * * * * ( bend all notes up half)
  (first part of chorus)
e|-------------------------------------------------------------------------|
B|-------------------------------------------------------------------------|
G|---------------------------------------------6---------------------------|
D|-3-----3-----3-----3-------3-----3-----3---5---5-----2-1-----------------|
A|-3-1-1-3-1-1-3-1-1-3-11-11-3-1-1-3-1-1-3-4-------4-3-----3-6-------------|
E|---1-1---1-1---1-1---11-11---1-1---1-1-----------------------------------|
     * *   * *   * *   ** **   * *   * *                     +

And thats all i've got, pleSE RaTe ThIs tAB ill put more onto this soon enough.


| /  slide up
| \  slide down
| h  hammer-on
| p  pull-off
| ~  vibrato
| +  harmonic
| x  Mute note
============================================================================
Comments