Chimaira - Pictures In The Gold Room Chords & Tabs

 

Pictures In The Gold Room Chords & Tabs

Chimaira Chords & Tabs

Version: 3 Type: Tab 0 ratings
1 star 2 stars 3 stars 4 stars 5 stars
comments

Pictures In The Gold Room Tab

   
Artist: Chimaira
Song: Pictures In The Gold Room
Album: The Impossibility Of Reason (2003)
Tabbed by: Yoni Drijfhout - tabs@illninoworld.com
Tuned: C G C F A D


|-----------------|-----------------|
|-----------------|-----------------|
|-----------------|-----------------|
|-1-------1-------|-1-------1-------|
|-1-0---0-1-0---0-|-1-0---0-1-00-00-|
|---0---0---0---0-|---0---0---00-00-| 4x
PM  *   *   *   *     *   *   ** **

|------------------------|
|------------------------|
|------------------------|
|-1----------------------|
|-1-00-00-0--------------|
|---00-00-0--------------|
PM  ** **

|-----------------|-----------------|
|-----------------|-----------------|
|-----------------|-7---------------|
|-1---------------|-7---------------|
|-1-00-00-0-------|-5---------------|
|---00-00-0-------|-0---------------|
PM  ** **

|-----------------|-----------------|
|-----------------|-----------------|
|-----------------|-----------------|
|-1---------------|-----------------|
|-1-00-00-0-------|-----------------|
|---00-00-0-------|-----------------|
PM  ** **

|-----------------|-----------------|
|-----------------|-----------------|
|-----------------|-----------------|
|-1---------------|---------1-------|
|-1-00-00-0---0---|-0----0--1-00-00-|
|---00-00-0---0---|-0----0----00-00-|
PM  ** **                     ** **

|-----------------|-----------------|
|-----------------|-----------------|
|-----------------|-----------------|
|-1-------1-------|-1---------------|
|-1-0-000-1-0-000-|-1-0-000-1-3-1-1-|
|---0-000---0-000-|---0-000-1-3-1-1-|  4x
PM                        * * * * *

|------------------------|
|------------------------|
|------------------------|
|------------------------|
|-0----------------------|
|-0----------------------|

|-----------------|-----------------|
|-----------------|-----------------|
|-----------------|-7---------------|
|-1---------------|-7---------------|
|-1-00-00-0-------|-5---------------|
|---00-00-0-------|-0---------------|
PM  ** **

|-----------------|-----------------|
|-----------------|-----------------|
|-----------------|-----------------|
|-1---------------|-----------------|
|-1-00-00-0-------|-----------------|
|---00-00-0-------|-----------------|
PM  ** **

|-----------------|-----------------|
|-----------------|-----------------|
|-----------------|-----------------|
|-1---------------|---------1-------|
|-1-00-00-0---0---|-0----0--1-00-00-|
|---00-00-0---0---|-0----0----00-00-|
PM  ** **                     ** **

|-----------------|-----------------|
|-----------------|-----------------|
|-----------------|-----------------|
|-1-------1-------|-1---------------|
|-1-0-000-1-0-000-|-1-0-000-1-3-1-1-|
|---0-000---0-000-|---0-000-1-3-1-1-|  8x
PM                        * * * * *

|-----------------|-----------------|
|-----------------|-----------------|
|-----------------|-----------------|
|-----------------|-----------------|
|-----------------|-----------------|
|-1~-1~-1~-1~-1-1-|-4~-4~-4-///////-|

|-----------------|-----------------|-----------------|-----------------|
|-----------------|-----------------|-----------------|-----------------|
|-----------------|-----------------|-----------------|-----------------|
|-1-------1-------|-1-------1-------|-1-------1-------|-----------------|
|-1-0---0-1-0---0-|-1-0---0-1-00-00-|-1-0---0-1-0---0-|-3/5-5/6---------|
|---0---0---0---0-|---0---0---00-00-|---0---0---0---0-|---------3/5-5/6-|  4x
PM  *   *   *   *     *   *   ** **     *   *   *   *

|-----------------|
|-----------------|
|-----------------|
|-----------------|
|-3/5-5/6---------|
|---------3/5-5/6-|

|-----------------|-----------------|
|-----------------|-----------------|
|-----------------|-----------------|
|-----------------|-----------------|
|-3/5-5/6---------|*5-------0---0---|
|---------3/5-5/6-|---0-0-0-0---0---| 4x

|-----------------|-----------------|
|-----------------|-----------------|
|-----------------|-----------------|
|-----------------|-----------------|
|-----------------|-----------------|
|-1~-1~-1~-1~-1-1-|-4~-4~-/////////-|
[ Tab from: http://www.guitartabs.cc/tabs/c/chimaira/pictures_in_the_gold_room_tab_ver_3.html ]
|-----------------|-----------------|-2---2-----------|-----------------|
|-----------------|-----------------|--3---3----------|-----------------|
|-----------------|-----------------|---4---4---------|-----------------|
|-0---------------|-11^-------------|-2---------------|-1-------0---0---|
|-0---------------|-11^-------------|-2---------------|-1-------0---0---|
|-0---------------|-11^-------------|-2---------------|-1-------0---0---|  4x
PM                                                              *   *

Guitar 1
|-----------------|-----------------|-----------------|-----------------|
|-----------------|-----------------|-----------------|-----------------|
|-----------------|-----------------|-----------------|-----------------|
|-----------------|-----------------|-----------------|-----------------|
|-6/5-------------|-6/5-------------|-6/5-------------|-6/5-------------|
|-----6-5-3-5-4-3-|-----6-5-3-5-4-3-|-----6-5-3-5-4-3-|-----6-5-3-5-4-3-|  2x

Guitar 2
|-----------------|-----------------|-----------------|-----------------|
|-----------------|-----------------|-----------------|-----------------|
|-----------------|-----------------|-----------------|-----------------|
|-----------------|-----------------|-----------------|-----------------|
|-6/5-------------|-6/5-------------|-6/5-------------|-6/5-------------|
|-----6-5-3-5-4-3-|-----6-5-3-5-4-3-|-----6-5-3-5-4-3-|-----6-5-3-5-4-3-|

|-----------------|-----------------|-----------------|-----------------|
|-----------------|-----------------|-----------------|-----------------|
|-----------------|-----------------|-----------------|-----------------|
|-4/3-------------|-4/3-------------|-4/3-------------|-4/3-------------|
|-----0-2/1-2-1-0-|-----0-2/1-2-1-0-|-----0-2/1-2-1-0-|-----0-2/1-*2----|
|-----------------|-----------------|-----------------|-----------------|

|-----------------|
|-----------------|
|-----------------|
|-----------------|
|-6-5-6-5-3-5-4-3-|
|-6-5-6-5-3-5-4-3-| 8x
PM* * * * * * * *

|-----------------|
|-----------------|
|-----------------|
|-----------------|
|-6-5-6-5-3-5-4-3-|
|-6-5-6-5-3-5-4-3-|

|-----------------|-----------------|
|-----------------|-----------------|
|-----------------|-----------------|
|-1-------1-------|-1---------------|
|-1-0-000-1-0-000-|-1-0-000-1-3-1-1-|
|---0-000---0-000-|---0-000-1-3-1-1-|  8x
PM                        * * * * *

|-----------------|-----------------|
|-----------------|-----------------|
|-----------------|-----------------|
|-----------------|-----------------|
|-----------------|-----------------|
|-1~-1~-1~-1~-1-1-|-4~-4~-4-///////-|

|-----------------|-----------------|-----------------|-----------------|
|-----------------|-----------------|-----------------|-----------------|
|-----------------|-----------------|-----------------|-----------------|
|-1-------1-------|-1-------1-------|-1-------1-------|-----------------|
|-1-0---0-1-0---0-|-1-0---0-1-00-00-|-1-0---0-1-0---0-|-3/5-5/6---------|
|---0---0---0---0-|---0---0---00-00-|---0---0---0---0-|---------3/5-5/6-|  4x
PM  *   *   *   *     *   *   ** **     *   *   *   *

|-----------------|-----------------|
|-----------------|-----------------|
|-----------------|-----------------|
|-1---------------|-----------------|
|-1-00-00-0-------|-----------------|
|---00-00-0-------|-----------------|
PM  ** **

|-----------------|-----------------|
|-----------------|-----------------|
|-----------------|-7---------------|
|-1---------------|-7---------------|
|-1-00-00-0-------|-5---------------|
|---00-00-0-------|-0---------------|
PM  ** **

|-----------------|-----------------|
|-----------------|-----------------|
|-----------------|-----------------|
|-1---------------|-----------------|
|-1-00-00-0-------|-----------------|
|---00-00-0-------|-----------------|
PM  ** **

|-----------------|-----------------|
|-----------------|-----------------|
|-----------------|-----------------|
|-1---------------|---------1-------|
|-1-00-00-0---0---|-0----0--1-00-00-|
|---00-00-0---0---|-0----0----00-00-|
PM  ** **                     ** **

|-----------------|
|-----------------|
|-----------------|
|-----------------|
|-0---------------|
|-0---------------|
Comments