Chimaira - Lazarus Chords & Tabs

 

Lazarus Chords & Tabs

Chimaira Chords & Tabs

Version: 3 Type: Tab 0 ratings
1 star 2 stars 3 stars 4 stars 5 stars
comments

Lazarus Tab

   
ARTIST:Chimaira
SONG:Lazarus
ALBUM:Chimaira
TABBED BY: nUmguitarist
TAB DATE:July 27-28 2005 
MODIFIED:August 13,2005
SOLO UPDATE:August 18, 2005
TUNING: C G C F A D 
      (Top To Bottom)

This is the solo thanks to Lewis (me) for posting. 
         May Chimaira's Tabs Live on
           PLEASE RATE AND COMMENT 

|-------------------------------------------------------------------|
|--------------------------------------20/21-21-20-18-20-21b--------|  heavy
|10/12b-12/13b-15/17-18/17-17/15-15/13------------------------------|  distortion
|------------------------------------------------------------1817-15|
|-------------------------------------------------------------------|
|-------------------------------------------------------------------|

|-------------------------------------------------------------20----|
|---------------------20/21------20-18-20--21-20-21--23-21-23---2120|
|---------------------------22--------------------------------------|
|-2018-17-22-20-18-17---------22------------------------------------|
|-------------------------------------------------------------------|
|-------------------------------------------------------------------|

|-------------------------------------------------------------------|
|18-2021------------------------------------------------------------|
|--------15/17--------------------1718-17b-15/17--------------------|
|--------------1817-13/15-1517-18----------------1817-13/15-1517-18-|
|-------------------------------------------------------------------|
|-------------------------------------------------------------------|
[ Tab from: http://www.guitartabs.cc/tabs/c/chimaira/lazarus_tab_ver_3.html ]
|--------------------------------------------------18-21b-2120-1820-|
|-------------------------------------------18-2021-----------------|
|1718-17b---------------------------15-17-18------------------------|
|---------1817-15-2018-1715b-1517-18--------------------------------|
|-------------------------------------------------------------------|
|-------------------------------------------------------------------|

|21b-212018-16b-15/13b-15b-15/16/15b-13-12-9/8-8-98-6b--------------|
|-----------------------------------------------------9-8-9---------|
|-------------------------------------------------------------------|
|------------------------------------------------------------8-6-5-6|
|-------------------------------------------------------------------|
|-------------------------------------------------------------------|

|-------------------------------------------------------------------|
|-------------------------------------------------------------------|
|-------------------------------------------------------------------|
|5------------------------------------------1517-18b-1718-20b-18-20-|
|--6-6/8b-8-10-11-11/13-13b-13/15-15-18/20b-------------------------|
|-------------------------------------------------------------------|

|----------------------------21b-1820-21-17b18--171817-14/13b-------|
|---------20-1820-21-2021-23----------------------------------------|
|----1718-----------------------------------------------------------|
|21b----------------------------------------------------------------|
|-------------------------------------------------------------------|
|-------------------------------------------------------------------|


Any Questions 
Email:KoRnRgReAt@msn.com
Emails:
revolter420666@aol.com,numguitarist@yahoo.com,numguitarist@hotmail.com
Comments