Chimaira - Lazarus Chords & Tabs

 

Lazarus Chords & Tabs

Chimaira Chords & Tabs

Version: 2 Type: Tab 0 ratings
1 star 2 stars 3 stars 4 stars 5 stars
comments

Lazarus Tab

   
ARTIST:Chimaira
SONG:Lazarus
ALBUM:Chimaira
TABBED BY: nUmguitarist
TAB DATE:July 27-28 2005 
MODIFIED:August 13,2005
TUNING: C G C F A D 
      (Top To Bottom)

After looking over this tab and from some help from others (chimaira_kid) 
I had realized that the tuning he suggested does sound more like they do 
I'm not saying the other tab for B F# B E G# C# is incorrect its just lower
so I wanted to make clear that I'll correct and take comments
I GIVE TABS JUST LIKE I LOOK AT TABS from tab websites
I'm a Massive Chimaira Fan and I dont want my name to be known as crappy tab 
writer SO I've modified the old one PLEASE RATE
Here's the correct version in C G C F A D thanx

|--x--x--|
|--x--x--|
|--x--x--|
|--x--x--|x1
|--x--x--|
|--x--x--|
Between the 1st and 2nd frets where the metal is
don't press down just hold your finger above

Feedback is at the begining and all throughout until below

|---------------------|
|---------------------|
|---------------------|
|---------4-----------|x3
|-x/--3---4-----------|
|-x/--3-------333333--|
              ......
then
|-------------------|
|-------------------|
|-------------------|
|------4------------|
|--3---4---1-1-1-1--|
|--3-------1-1-1-1--|
           . . . .
Repeat x3 
Until This Comes In

|----------------------------------------|
|----------------------------------------|
|----------------------------------------|
|---4---------4---------4---------4------|x1
|-3-4-3333--3-4-3333--3-4-3333--3-4-3333-|
|-3---3333--3---3333--3---3333--3---3333-|
      ....      ....      ....      ....

Feedback will stop somewhere here

|--------------------------|    |---------------|
|--------------------------|    |---------------|
|--------------------------|    |---------------|
|----4-----4-------4-----4-|x3.5|----4----------|      
|-3--4--3--4--3-3--4--3--4-|    |-3--4--1-1-1-1-|
|-3-----3-----3-3-----3----|    |-3-----1-1-1-1-|     
        .     .       .                 . . . .

|-----------------------|
|-----------------------|
|-----------------------|
|-----------------------|x2
|-444-333-----444-333---|
|---------444---------4-|
  ... ... ... ... ... 

|-------------------------------------------------------|
|-------------------------------------------------------|
|-------------------------------------------------------|
|-------------------------------------------------------|x4
|-------------------------------------------------------|
|-333-33h6p333-333-33h6p333-333-33h6p33-333/666\444/777-|
  ... ..   ... ... ..   ... ... ..   .. ... ... ... ...     
^(fast)

|-----------------------|    |--------------|
|-----------------------|    |--------------|
|-----------------------|    |--------------|
|-----------------------|x3.5|------------3-|x.5
|-444-333-----444-333---|    |-4-4-4--4\3-3-|
|---------444---------4-|    |-4-4-4--4\3---|
  ... ... ... ... ...          . . .
  ^can play Palm Mute or not   ^(Listen) this is at the end

Chorus:
|------------------------------|----------------------------------|
|------------------------------|----------------------------------|
|------------------------------|----------------------------------|
|------------------------------|----------------------------------|x4
|-3-4-3---3-3-4-3--(3)-1-11-11-|-3-4-3---3-3-4-3--4-4-6-6-4-4-3-3-|
|-3-4-3---3-3-4-3--(3)-1-11-11-|-3-4-3---3-3-4-3--4-4-6-6-4-4-3-3-|
          .            . .. ..           .
                       ^1's not 11's 
|-----------------|
|-----------------|
|-----------------|
|-----4-----------|x3
|-3---4-----------|
|-3-------333333--|
          ......
then
|-------------------|
|-------------------|
|-------------------|
|------4------------|
|--3---4---1-1-1-1--|
|--3-------1-1-1-1--|
           . . . .
^Repeat x1

|-------------------------------------------------------|
|-------------------------------------------------------|
|-------------------------------------------------------|
|-------------------------------------------------------|x4
|-------------------------------------------------------|
|-333-33h6p333-333-33h6p333-333-33h6p33-333/666\444/777-|
  ... ..   ... ... ..   ... ... ..   .. ... ... ... ...     
^(fast)
[ Tab from: http://www.guitartabs.cc/tabs/c/chimaira/lazarus_tab_ver_2.html ]
|-----------------------|    |--------------|
|-----------------------|    |--------------|
|-----------------------|    |--------------|
|-----------------------|x3.5|------------3-|x.5
|-444-333-----444-333---|    |-4-4-4--4\3-3-|
|---------444---------4-|    |-4-4-4--4\3---|
  ... ... ... ... ...          . . .
 ^can play Palm Mute or not    ^(Listen) this is at the end
Chorus:
|------------------------------|----------------------------------|
|------------------------------|----------------------------------|
|------------------------------|----------------------------------|
|------------------------------|----------------------------------|x4
|-3-4-3---3-3-4-3--(3)-1-11-11-|-3-4-3---3-3-4-3--4-4-6-6-4-4-3-3-|
|-3-4-3---3-3-4-3--(3)-1-11-11-|-3-4-3---3-3-4-3--4-4-6-6-4-4-3-3-|
          .            . .. ..           .
                         ^1's not 11's
|--------------------|
|--------------------|
|--------------------|
|------------1---1---|
|-3--4---1~~---1---1-|
|-3--4---1~~---------|


|--------------------------------|----------------------------|
|--------------------------------|----------------------------|
|-------------5b^b^--------------|-------------5b^b^----------|
|-----------3------------1---1---|-----------3------------1---|
|-3-4-3~~-3----------1~~---1---1-|-3-4-3~~-3----------1~~---1-|
|-3-4-3~~------------1~~---------|-3-4-3~~------------1~~-----|


|---------|
|---------|
|---------|
|---------|
|-3-4-3~~-|
|-3-4-3~~-|

Guitar 1 (Distortion)
|---------------------------------------------------|
|---------------------------------------------------|
|---------------------------------------------------|
|---------------------------------------------------|
|-3~~----------1~~------3h4p3~~---------1~~---------|
|-3~~----------1~~------3h4p3~~---------1~~---------|
                        ^Light touch
Guitar 2 (Clean)
|---------------------------------------------------|
|--------2-1~~--------2-1~~--------2-1~--------2-1~-|
|---------------------------------------------------|
|-----3~-----------3~-----------3~----------3~------|
|---3~-----------3~-----------3~----------3~--------|
|-3~-----------3~-----------3~----------3~----------|


|-------------------------------|
|-------------------------------|
|-------------------------------|
|-------------------------------|x3
|-----6-----4-----3-------------|
|-3-3---3-3---3-3---3-3-3-3-3-3-|
  . .   . .   . .   . . . . . . 

|--------------------------------|
|--------------------------------|
|--------------------------------|
|--------------------------------|
|-----6-----4--------------------|
|-3-3---3-3---3-3--666--4-4--777-|
  . .   . .   . .  ...  . .  ...

|-------------------------------|
|-------------------------------|
|-------------------------------|
|-------------------------------|x3
|-----6-----4-----3-------------|
|-3-3---3-3---3-3---3-3-3-3-3-3-|
  . .   . .   . .   . . . . . . 

|--------------------------------|
|--------------------------------|
|--------------------------------|
|--------------------------------|
|-----6-----4--------------------|
|-3-3---3-3---3-3--666--4-4--777-|
  . .   . .   . .  ...  . .  ...

         Solo????????

Guitar 2
|-------------------------------|
|-------------------------------|
|-------------------------------|
|-----8-----6-----5-------------|
|-3-3-6-3-3-4-3-3-3-3-3-3-3-3-3-|
|-3-3---3-3---3-3---3-3-3-3-3-3-|
  . .   . .   . .   . . . . . . 

|--------------------------------|
|--------------------------------|
|--------------------------------|
|-----8-----6--------------------|
|-3-3-6-3-3-4-3-3--666--4-4--777-|
|-3-3---3-3---3-3--666--4-4--777-|
  . .   . .   . .  ...  . .  ...

^Repeat all 4x times
then

|---------------------------|-----------------------------------|
|---------------------------|-----------------------------------|
|---------------------------|-----------------------------------|
|---------------------------|-----------------------------------|
|-3-4-3--3-3-4-3-3----------|-3-4-3--3-3-4-3--4-4-6-6-----------|
|-3-4-3--3-3-4-3-3-3b(down)-|-3-4-3--3-3-4-3--4-4-6-6--6b(down)-|
         .       .                   .

|---------------------------|-----------------------------|
|---------------------------|-----------------------------|
|---------------------------|-----------------------------|
|---------------------------|-----------------------------|
|-3-4-3--3-3-4-3-3----------|-3-4-3--3-3-4---4-3-1--4-3-1-|
|-3-4-3--3-3-4-3-3-3b(down)-|-3-4-3--3-3-4---4-3-1--4-3-1-|
         .       .                   .         . .  . . .

^Repeat all 2x

|------------------------------------------------|
|------------------------------------------------|
|------------------------------------------------|
|-6~--5~--------6~--5~-------6~--5~--------6~--5-|
|-4~--3~---4~---4~--3~---4---4~--3~---4~---4~--3-|
|----------4~------------4------------4~---------|


Chorus:
|------------------------------|----------------------------------|
|------------------------------|----------------------------------|
|------------------------------|----------------------------------|
|------------------------------|----------------------------------|x6
|-3-4-3---3-3-4-3--(3)-1-11-11-|-3-4-3---3-3-4-3--4-4-6-6-4-4-3-3-|
|-3-4-3---3-3-4-3--(3)-1-11-11-|-3-4-3---3-3-4-3--4-4-6-6-4-4-3-3-|
          .            . .. ..           .
                         ^1's not 11's 
|-------|
|-------|
|-------|
|-------|
|-3~~~~-|
|-3~~~~-|
 End on

(Clean)
|---------------------------------------------------|
|--------2-1~~--------2-1~~--------2-1~--------2-1~-|
|---------------------------------------------------|
|-----3~-----------3~-----------3~----------3~------|x11
|---3~-----------3~-----------3~----------3~--------|
|-3~-----------3~-----------3~----------3~----------|

This song is a very brutal song with one hell of a meaning behind it 
Solo Much Needed Email or post comment RATE PLEASE

P.S.if this gets posted elsewhere please give me some credit for this.
it took two days of listening over and over thanks.This is for ya'll,
                                                               nUmguitarist 
Emails:
revolter420666@aol.com,numguitarist@yahoo.com,numguitarist@hotmail.com
Comments