Chimaira - Eyes Of A Criminal Chords & Tabs

 

Eyes Of A Criminal Chords & Tabs

Chimaira Chords & Tabs

Version: 1 Type: Tab 0 ratings
1 star 2 stars 3 stars 4 stars 5 stars
comments

Eyes Of A Criminal Tab

   
Chimaira - Eyes Of A Criminal
Submitted By: Sqweeky
EMail: Blindside831@aol.com
Album: Impossibility of Reason
Tabbed by Gary Glaser (swfett@hotmail.com)

Tuned down 1 step with drop D. I didn't bother putting in palm mutes
since those are pretty easy to figure out. Just listen to the song.

Intro:         
D|--------------------|     |-------------------|
A|--------------------|     |-------------------|
F|--------------------|(7x) |-------------------|
C|--------------------|then |-------------------|
G|80001p000-01p0001/3-| ->  |80001p001-01-001/3-|
C|80001p000-01p0001/3-|     |80001p001-01-001/3-|

Verse(2x):
D|--------------------|     |-------------------|
A|--------------------|     |-------------------|
F|--------------------|(3x) |-------------------|
C|--------------------|then |-------------------|
G|80001p000-01p0001/3-| ->  |80001p001-01-001/3-|
C|80001p000-01p0001/3-|     |80001p001-01-001/3-|

Pre-Chorus:
D|----------------------------------------------|
A|----------------------------------------------|
F|----------------------------------------------|
C|----------------------------------------------|
G|8-0-------8-0-11-------8-0-------8-0-11-------|
C|8-0-------8-0-11-------8-0-------8-0-11-------|
[ Tab from: http://www.guitartabs.cc/tabs/c/chimaira/eyes_of_a_criminal_tab.html ]
Chorus:
D|-------------------------|     |-------------------------|
A|-------------------------|     |-------------------------|
F|-------------------------|(3x) |-------------------------|
C|-------------------------|then |-------------------------|
G|0001p04p0000-------------| ->  |0001p04p0000-------------|
C|0001p04p0000-111-333-444-|     |0001p04p0000-111-333-111-|

Fill:
D|--------------------|     |----------------------|
A|--------------------|     |----------------------|
F|--------------------|(3x) |----------------------|
C|--------------------|then |----------------------|
G|80001p000-01p0001/3-| ->  |001-001-001-001-001/3-|
C|80001p000-01p0001/3-|     |001-001-001-001-001/3-|

Verse(2x)
Pre-Chorus
Chorus

Interlude(not 100%, make a correction and I'll modify this):
D|-------------------------------------------|
A|-------------------------------------------|
F|----0-------0------0---0---0---0-----------|
C|-101-110-101-110--0---0---0---0---0--0-----|
G|-------------------------0---4---1--0------|
C|0-------0--------4---5---------------------|

Solo (I'm no expert on solos, better do it yourself)
Pre-Chorus
Chorus(2x)

Outro:
D|---------------|
A|---------------|
F|---------------|
C|---------------|
G|---------------|
C|00-111-333-111-|
Comments