Chimaira - Down Again Chords & Tabs

 

Down Again Chords & Tabs

Chimaira Chords & Tabs

Version: 1 Type: Tab 0 ratings
1 star 2 stars 3 stars 4 stars 5 stars
comments

Down Again Tab

Down Again Guitar tab

. = palm mute    
^ = bend

Accordage: DGCFAD

Intro x4
|------------------------------------------------------------------------------------|
|------------------------------------------------------------------------------------|
|------------------------------------------------------------------------------------|
|------------------------------------------------------------------------------------|
|-11-10-11-13-13-11--13-11-13-15-15-13--13-13-13-15-15-15-15-15-13-13-13-15-13-13-15^|
|------------------------------------------------------------------------------------|

2° guitare (fin de l'intro) 
|-------------------------------------------------------|
|-------------------------------------------------------|
|-21-19-18-17-15-15-15-17-17-17-17-17-15-17-15-15-17^---|
|-------------------------------------------------------|
|-------------------------------------------------------|
|-------------------------------------------------------|

Refrain
|-----------------------------------------------------------|
|-----------------------------------------------------------|
|-----------------------------------------------------------|
|-3-3-3-1-1-1-4-4-4--3-3-3-6-6-4-4-4--1-1-3--1-1-3--4-4\3-1-|
|-3-3-3-1-1-1-4-4-4--3-3-3-6-6-4-4-4--1-1-3--1-1-3--4-4\3-1-|
|-3-3-3-1-1-1-4-4-4--3-3-3-6-6-4-4-4--1-1-3--1-1-3--4-4\3-1-|
                                      . .    . .
 
---------------------------------------------------------
---------------------------------------------------------
---------------------------------------------------------
-3-3-3-1-1-1-4-4-4--3-3-3-6-6-4-4-4--1-1-3--1-1-3--4-3-4-
-3-3-3-1-1-1-4-4-4--3-3-3-6-6-4-4-4--1-1-3--1-1-3--4-3-4-
-3-3-3-1-1-1-4-4-4--3-3-3-6-6-4-4-4--1-1-3--1-1-3--4-3-4-
                                     . .    . .
Riff
|---------------------------------------------------|
|---------------------------------------------------|
|---------------------------------------------------|
|-1-------------------------------------------------|
|-1-1-1-1-1-1-1-1-1-1-1-1-1-1-1-1-66666666-88888888-|
|-1-1-1-1-1-1-1-1-1-1-1-1-1-1-1-1-------------------|
    .............................

Fill 1 entre le riff et le refrain (laisser sonner)
|---|
|---|
|---|
|-1-|
|-1-|
|-1-|
[ Tab from: http://www.guitartabs.cc/tabs/c/chimaira/down_again_tab.html ]
Refrain
---------------------------------------------------------
---------------------------------------------------------
---------------------------------------------------------
-3-3-3-1-1-1-4-4-4-3-3-3-6-6-4-4-4--1-1-3--1-1-3--4-4-3-1
-3-3-3-1-1-1-4-4-4-3-3-3-6-6-4-4-4--1-1-3--1-1-3--4-4-3-1
-3-3-3-1-1-1-4-4-4-3-3-3-6-6-4-4-4--1-1-3--1-1-3--4-4-3-1
                                    . .    . .
-------------------------------------------------------
-------------------------------------------------------
-------------------------------------------------------
-3-3-3-1-1-1-4-4-4-3-3-3-6-6-4-4-4--1-1-3--1-1-3--4-3-4
-3-3-3-1-1-1-4-4-4-3-3-3-6-6-4-4-4--1-1-3--1-1-3--4-3-4
-3-3-3-1-1-1-4-4-4-3-3-3-6-6-4-4-4--1-1-3--1-1-3--4-3-4
                                    . .    . .

---------------------------------------------------------
---------------------------------------------------------
---------------------------------------------------------
-3-3-3-1-1-1-4-4-4-3-3-3-6-6-4-4-4--1-1-3--1-1-3--4-4-3-1
-3-3-3-1-1-1-4-4-4-3-3-3-6-6-4-4-4--1-1-3--1-1-3--4-4-3-1
-3-3-3-1-1-1-4-4-4-3-3-3-6-6-4-4-4--1-1-3--1-1-3--4-4-3-1
                                    . .    . . 
---------------------------------------------------------
---------------------------------------------------------
---------------------------------------------------------
-3-3-3-1-1-1-4-4-4-3-3-3-6-6-4-4-4--1-1-3--1-1-3--4-----4
-3-3-3-1-1-1-4-4-4-3-3-3-6-6-4-4-4--1-1-3--1-1-3--4-----4
-3-3-3-1-1-1-4-4-4-3-3-3-6-6-4-4-4--1-1-3--1-1-3--4-4\7-4
                                    . .    . .

 
Bridge
|----------------------------------------------------------------|
|----------------------------------------------------------------|
|----------------------------------------------------------------|
|----------------------------------------------------------------|
|-11^--13-13-11-10-6--15^-15-15-16^-16^-16^-16-16-15-16-15-15-13-|
|----------------------------------------------------------------|

Fill 2 
|---|                                  |-------------|
|---|                                  |-------------|
|---|              après le piano -->  |-------------|
|---|                                  |-3-1-4-3-6-4-|
|-1-|                                  |-3-1-4-3-6-4-|
|-1-|                                  |-3-1-4-3-6-4-|



Refrain


La fin
|---------------|
|---------------|
|---------------|
|---------------|
|-1-1-1-1-1-1-3-|
|-1-1-1-1-1-1-3-|
  . . . . . .



Comments