Children Of Bodom - Youre Better Off Dead Chords & Tabs

 

Youre Better Off Dead Chords & Tabs

Children Of Bodom Chords & Tabs

Version: 2 Type: Tab 0 ratings
1 star 2 stars 3 stars 4 stars 5 stars
comments

Youre Better Off Dead Tab

Children of Bodom
You're Better off dead
Hatecrew Deathroll
Tabbed By kevin Cruz

Tune all Strings down one whole step

|--------------------------12\24-|
|--------------------------------|
|-11-------9-------5-------------|
|--------------------------------|
|--------------------------------|
|--------------------------------|

                                   1.3.               2.
|---------------------------------|------------------|------------------|
|---------------------------------|------------------|------------------|
|---------------------------------|------------------|---------8-11-9/0-|
|--------------------7------------|------------------|-7-10-9-7---------|
|-4-2-4-2-5--4-2-4-2-5--4-2-4-2-5-|------------------|------------------|
|-2-0-2-0-3--2-0-2-0----2-0-2-0-3-|-0000000000000000-|------------------|
    .   .      .   .      .   .     ................
                                   4.
                                  |---------------|
                                  |---------------|
                                  |-8-9-11-8-9-11-|
                                  |---------------|
                                  |---------------|
                                  |---------------|

|-------|--------|------|--------------|---------|--------|------|---------|
|-------|--------|------|--------------|---------|--------|------|---------|
|-------|--------|------|--------------|---------|--------|------|---------|
|-------|--------|------|-------12--11-|---------|--------|------|-5-------|
|-4--2--|--------|-4--2-|-------10--9--|-4--2--4-|--5--7--|-4--2-|-3-5-5-5-|
|-2--0--|--0-2-0-|-2--0-|-0-2-0--------|-2--0--2-|--3--5--|-2--0-|---3-3-2-|
           . . .          . . .             
                                   1.                 2.
|---------------------------------|------------------|------------------|
|---------------------------------|------------------|------------------|
|---------------------------------|------------------|---------8-11-9/0-|
|--------------------7------------|------------------|-7-10-9-7---------|
|-4-2-4-2-5--4-2-4-2-5--4-2-4-2-5-|------------------|------------------|
|-2-0-2-0-3--2-0-2-0----2-0-2-0-3-|-0000000000000000-|------------------|
    .   .      .   .      .   .     ................
[ Tab from: http://www.guitartabs.cc/tabs/c/children_of_bodom/youre_better_off_dead_tab_ver_2.html ]
|---------------|---------------|----------------------------------|
|---------------|---------------|----------------------------------|
|---------------|---------------|----------------------------------|
|-9--9-7--7-7-9-|-9--9-5--5-5-5-|----------------------------------|
|-7--7-5--5-5-7-|-7--7-3--3-3-3-|-----10-9-----9-7-----7-5-----9-7-|
|---------------|---------------|-0-0------0-0-----0-0-----0-0-----|
                                  . .      . .     . .     . . 
|---------------|---------------|----------------------------------|
|---------------|----------A.H.-|----------------------------------|
|---------------|----------<5>--|----------------------------------|
|-9--9-7--7-7-9-|-9--9-5--5-----|----------------------------------|
|-7--7-5--5-5-7-|-7--7-3--3-----|-----10-9-----9-7-----7-5-----9-7-|
|---------------|---------------|-0-0------0-0-----0-0-----0-0-----|
                                  . .      . .     . .     . .

                                     
|-----------------|-----------------||-0-14-10-14-0-14-10-14-|
|-7-5-7-9--7-9-10-|-9-10/17~10-9-10-||-----------------------|
|-----------------|-----------------||-----------------------| 2x
|-----------------|-----------------||-----------------------|
|-----------------|-----------------||-----------------------|
|-----------------|-----------------||-----------------------|

|------A.H.-------|-----------------||-0-14-10-14-0-141210------------91012-|
|-7-5-7<9>-7-9-10-|-9-10/17~10-9-10-||--------------------141210-91012------|
|-----------------|-----------------||--------------------------------------|
|-----------------|-----------------||--------------------------------------|
|-----------------|-----------------||--------------------------------------|
|-----------------|-----------------||--------------------------------------|

                           1.3. Sweep Pick
|---------17---------17-|---16h19p16---16h19p16----14h19p14----14h19p14--|
|-19-15-19---21-17-21---|--17------17-17------17-15-------15-15-------15-|
|-----------------------|-16--------16---------16----------16------------|
|-----------------------|------------------------------------------------|
|-----------------------|------------------------------------------------|
|-----------------------|------------------------------------------------|

  2.
||-----14h17p14------17h21p17------16h19p16------12h16p12---|
||---15--------15--19--------19--17--------17--14--------14-|
||-14------------18------------16------------14-------------|
||----------------------------------------------------------|
||----------------------------------------------------------|
||----------------------------------------------------------|
Comments