Children Of Bodom - Triple Corpse Hammerblow Chords & Tabs

 

Triple Corpse Hammerblow Chords & Tabs

Children Of Bodom Chords & Tabs

Version: 1 Type: Bass Tab 0 ratings
1 star 2 stars 3 stars 4 stars 5 stars
comments

Triple Corpse Hammerblow Bass Tab

   
Children of Bodom
Triple Corpse Hammerblow (Bass)
Hatecrew Deathroll
Tabbed By Kevin Cruz
Originally from Taborama.com

The ones in brackets are for those who do not have a 5-String 

Tunning: A D G C F 

INTRO
  1 + 2 + 3 + 4 +  1 + 2 + 3 + 4 +  1 + 2 + 3 + 4 +  1 + 2 + 3 + 4 +
F|----------------|----------------|----------------|----------------||
C|----------------|----------------|----------------|----------------||
G|----------------|----------------|----------------|----------------||
D|----------------|----------------|----------------|3-------5-------||
A|----------------|----------------|----------------|----------------||

F|----------------|----------------|----------------|----------------||
C|----------------|----------------|----------------|----------------||
G|----------------|----------------|----------------|----------------||
D|7-BEND----------|----------------|3-------5-------|7---------------||
A|----------------|----------------|----------------|----------------||

F|----------------|----------------|----------------|----------------||
C|----------------|----------------|----------------|----------------||
G|----------------|----------------|----------------|----------------||
D|3-------5-------|0-0-0-0-0-0-0-0-|0-0-0-0-0-0-0-0-|0-0-0-0-0-0-0-0-||
A|----------------|----------------|----------------|----------------||

F|----------------||
C|----------------||
G|----------------||
D|0-0-0-0-0-0-0-0-||
A|----------------||

Verse
F|----------------|----------------|----------------|----------------||
C|----------------|----------------|----------------|----------------||
G|2-2-2-2-2-2-2-2-|2-2-2-2-2-2-2-2-|5-5-5-5---------|0-0-0-0-0-0-0-0-|| 
D|----------------|----------------|--------0-0-0-0-|----------------|| x4
A|----------------|----------------|----------------|----------------||

Chorus
F|----------------|----------------|----------------||
C|----------------|----------------|----------------||
G|4-442-224-44445-|4-442-224-44445-|4---2---4---6---||
D|----------------|----------------|----------------|| x2
A|----------------|----------------|----------------||

Play Verse x2

Play Chorus x2

Interlude
F|----------------|----------------|----------------|----------------||
C|----------------|----------------|----------------|----------------||
G(66)—(66)(6)-----|----4-6(4-4)----(66)—(66)(6)-----(2-2)---(4-4)----||
D|--6-----7---6-7-|2-2---------4-6-|--6-----7---6-7-|----2-1-----4-6-|| x2
A|44----44--4-----|--------2-2-----|44----44--4-----|0-0-----2-2-----||

„Don't push me"
F|----------------|----------------||
C|----------------|----------------||
G|----------------|----------------||
D|0-0-000-0-0-000-|----------------|| x3 
A|----------------|----------------||
[ Tab from: http://www.guitartabs.cc/tabs/c/children_of_bodom/triple_corpse_hammerblow_btab.html ]
End with this after the third time:
F|----------------||
C|----------------||
G(3-3-333-5-5-555)||
D|----------------|| 
A|1-1-111-3-3-333-||

Interlude 2
F|9-------10------|12------13------|9-------10------|12------13------||
C|9-------10------|12------13------|9-------10------|12------13------||
G|7-------8-------|10------11------|7-------8-------|10------11------||
D|0---------------|----------------|0---------------|----------------||
A|----------------|----------------|----------------|----------------||

F|----------------|----------------|----------------|----------------||
C|----------------|----------------|----------------|----------------||
G|----------------|----------------|----------------|----------------||
D|0000000011111111|3333333344444444|0000000011111111|3333333344444444||
A|----------------|----------------|----------------|----------------||

Lead Part
F|----------------|----------------|----------------|----------------||
C|----------------|----------------|----------------|----------------||
G|00000-0000000000|000000000-------|00000-0000000000|000000000-------||
D|----------------|------------3---|----------------|------------3---||
A|----------------|----------------|----------------|----------------||

F|----------------|----------------|----------------|----------------||
C|----------------|----------------|----------------|----------------||
G|----------------|----------------|----------------|----------------||
D|22222-2222222222|22222-2222220---|22222-2222222222|22222-2222220---||
A|----------------|----------------|----------------|----------------||

Re-Intro
F|----------------|----------------|----------------|----------------||
C|----------------|----------------|----------------|----------------||
G|----------------|----------------|----------------|----------------||
D|2-HOLD----------|----------------|----------------(10)-----0-------||
A|----------------|----------------|----------------|3---------------||

F|----------------|----------------|----------------|----------------||
C|----------------|----------------|----------------|----------------||
G|----------------|----------------|----------------|----------------||
D|2---------------(10)-----0-------|0-0-0-0-0-0-0-0-|0-0-0-0-0-0-0-0-||
A|----------------|3---------------|----------------|----------------||

Play Verse x4

Guitar Solo: Play „Don't push me"  x3
Finish with this after the third time:

F|----------------||
C|----------------||
G|3-3-333-5-5-555-||
D|----------------|| 
A|----------------||

Play Interlude 2 (still solo)

Play Interlude x2 (solo ended)

Play Interlude 2 (Key-Solo)

Play Chorus x2

Play "Don't push me" x2
End up with this:

F|----------------|----------------|----------------|----------------||
C|----------------|----------------|----------------|----------------||
G|----------------|----------------|----------------|----------------||
D|4-4-444-4-4-444-|----------------|4-4-444-4-4-444-|4-4-444-4-4-444-||
A|----------------|----------------|----------------|----------------||
Comments