Children Of Bodom - Taste Of My Scythe Chords & Tabs

 

Taste Of My Scythe Chords & Tabs

Children Of Bodom Chords & Tabs

Version: 1 Type: Tab 0 ratings
1 star 2 stars 3 stars 4 stars 5 stars
comments

Taste Of My Scythe Tab

Children of Bodom
Taste of my scythe
Follow the reaper
Tabbed by Kevin Cruz

Tune down all strings one whole step

D:--------------|--------------|-----------------|-----------------|
A:--------------|--------------|-----------------|-----------------|
F:--------------|--------------|-----------------|-----------------|
G:------------2-|------------2-|----5-5-5--5-5-2-|----5-5-5--5-5-2-|
C:-5-5-5--5-5-2-|-5-5-5--5-5-2-|---------------2-|---------------2-|
D:-3-3-3--3-3-0-|-3-3-3--3-3-0-|-00-3-3-3--3-3-0-|-00-3-3-3--3-3-0-|
                                 ..                ..

D:--------------|--------------|-----|-----------------|------|
A:--------------|--------------|-----|-----------------|------|
F:-5-5-5--5-5-7-|-5-5-5--5-5-7-|-----|-3--2-2-2--2-2-3-|--7~--|
G:--------------|--------------|-2\3-|-5--3-3-3--3-3-5-|------|
C:-3-3-3--3-3-5-|-3-3-3--3-3-5-|-3\5-|-----------------|------|
D:--------------|--------------|-----|-----------------|------|

D:-----------------------------------|------------------------------------|
A:-----------------------------------|------------------------------------|
F:-----------------------------------|------------------------------------|
G:-----------------------------------|------------------------------------|
C:----10p7----7p6----10p7------------|------------10p7--------------------|
D:-00------00-----00------00-000-000-|-00-10p7-00------00-10p7-00-000-000-|
   ..      ..     ..      .. ... ...   ..      ..      ..      .. ... ...

D:-----------------------------------|------------------|
A:-----------------------------------|------------------|
F:-----------------------------------|------------------|
G:-----------------------------------|------------------|
C:----10p7----7p6----10p7------------|------------10p7--|
D:-00------00-----00------00-000-000-|-00-10p7-00-------|
   ..      ..     ..      .. ... ...   ..      ..
[ Tab from: http://www.guitartabs.cc/tabs/c/children_of_bodom/taste_of_my_scythe_tab.html ]
D:-----------------------------|--------7-9------10-9-7--------|
A:-----------------------------|-7-9-10-----10-9--------10-9-7-|
F:----------------------7-9----|-------------------------------|
G:--------7-9----7-9-10-----10-|-------------------------------|
C:-7-9-10-----10---------------|-------------------------------|
D:-----------------------------|-------------------------------|
   . . .  . . .  . . .  . . . 

D:-----------------------------------------------------------------|
A:-----------------------------------------------------------------|
F:----------------------------------------------------5-5------4-4-|
G:----10/9----7\9----10\9----7\9----10--9---------5-5------4-4-----|
C:----8-/7----5\7----8-\7----5\7----8---7---------3-3-3-3--2-2-2-2-|
D:-00------00-----00------00-----00-------0-2-3-5------------------|
   ..      ..     ..      ..     ..       . . . . 


D:-------------------------|-------------------|
A:-------------------------|-------------------|
F:------------------4-2-4--|-------------------|
G:------------------4-2-4--|-----77774444------|
C:-5555444422224400-2-0-2--|-5555--------5533--|
D:-------------------------|-------------------|
   ................          ................

CHORUS W/KEYBOARDS
D:----------------19-20----19-22-17----15----14-----|
A:-17-20-19----17-------22----------19----17----15--|
F:----------19--------------------------------------|
G:--------------------------------------------------|
C:--------------------------------------------------|
D:--------------------------------------------------|

D:----------------19-20----19-22-17----15----14-----|---------|
A:-17-20-19----17-------22----------19----17----15--|---15b---|
F:----------19--------------------------------------|---------|
G:--------------------------------------------------|---------|
C:--------------------------------------------------|---------|
D:--------------------------------------------------|---------|

i'll write the rest later...much!
Comments