Children Of Bodom - Red Light In My Eyes Part 1 Chords & Tabs

 

Red Light In My Eyes Part 1 Chords & Tabs

Children Of Bodom Chords & Tabs

Version: 1 Type: Tab 0 ratings
1 star 2 stars 3 stars 4 stars 5 stars
comments

Red Light In My Eyes Part 1 Tab

Children of Bodom 
Red Light in My Eyes pt.1
Something Wild
Tabbed By Kevin Cruz

it's pretty close.

Tune all strings down one-whole step

Guitar 1
|D:-----| |------------------|--------------|------------------|
|A:-----| |------------------|----5------5--|------------------|
|F:-----| |----------------7-|-5------------|----------------7-|
|C:-12\-| |-7---7-10-9---9---|--------6-----|-7---7-10-9---9---|
|G:-10\-| |---7--------7-----|--------------|---7--------7-----|
|D:-----| |------------------|--------------|------------------|
|
|Guitar 2
|D:-----| |------------------|--------------|------------------|
|A:-----| |------------------|----7------7--|------------------|
|F:-----| |----------------9-|-7------------|----------------9-|
|C:-----| |-9---9-12-11--11--|--------8-----|-9---9-12-11--11--|
|G:-----| |---9---------9----|--------------|-------------9----|
|D:-----| |------------------|--------------|------------------|

Guitar 1
|D:-----------------| 
|A:-----------------| 
|F:-5-4-------------| 
|C:-----7-6-4-----4-| 
|G:-----------7-6---| 
|D:-----------------| 
|
|Guitar 2
|D:-----------------||---|
|A:-----------------||---|
|F:-7-6-------------||-2-|
|C:-----9-8-6-----6-||-2-|
|G:-----------9-8---||-0-|
|D:-----------------||---|

[ Tab from: http://www.guitartabs.cc/tabs/c/children_of_bodom/red_light_in_my_eyes_part_1_tab.html ]
Guitar 1 (Clean Tone) w/Keyboards
|D:-7-|----------------------|-----------------------|
|A:-9-|-9-11-11h12-11-9----9-|-9-11-11h12-11-9-12-11-|
|F:-6-|-----------------11---|-----------------------|
|C:---|----------------------|-----------------------|
|G:---|----------------------|-----------------------|
|D:---|----------------------|-----------------------|
|
|Guitar 2
|-----|----------------------|-----------------------|
|-----|----------------------|-----------------------|on the second
|-----|----------------------|-----------------------|time
|-----|-6--------------------|-4---------------------|
|-\\--|-6--------------------|-4---------------------|
|-\\--|-4--------------------|-2---------------------|

Guitar 1
|D:----------------------| |--------------------|
|A:----9-9h11-9----------| |----------9--11--12-|
|F:-11----------11----11-| |-11----11-----------|
|C:----------------11----| |----11--------------|
|G:----------------------| |--------------------|
|D:----------------------| |--------------------|
|
|Guitar 2
|------------------------| |--------------------| 
|------------------------| |--------------------|
|------------------------| |-------------10ah---|
|---2--------------------| |-4------------------|
|---2--------------------| |-4------------------|
|---0--------------------| |-2------------------|

Guitar 1
|D:---------------------------------------------------|
|A:---------------------------------------------------|
|F:-2-2-2-2-2-2-2-2-2-2-2-2-2-2-2-2-2-2-2-2-2-----5---|
|C:-2-2-2-2-2-2-2-2-2-2-2-2-2-2-2-2-2-2-2-2-2-----5-5-|
|G:-0-0-0-0-0-0-0-0-0-0-0-0-0-0-0-0-0-0-0-0-0-----3-5-|
|D:-------------------------------------------0-0---3-|
|
|Guitar 2
|-----------------------------------------------------|
|-----------------------------------------------------|
|-----------------------------------------------------|
|-----------------------------------------------------|
|-----------------------------------------------------|
|-----------------------------------------------------|

Guitar 1
|D:--------------------------------|
|A:--------------------------------|
|F:-2-2---2----2---2--2----2-------|
|C:-2-2---2----2---2--2----2--2--2-|
|G:-0-0---0----0---0--0----0--2--2-|
|D:---------------------------0--0-|

I'll write the rest later!!!!
Comments