Children Of Bodom - Living Dead Beat Chords & Tabs

 

Living Dead Beat Chords & Tabs

Children Of Bodom Chords & Tabs

Version: 1 Type: Tab 1 rating
1 star 2 stars 3 stars 4 stars 5 stars
comments

Living Dead Beat Tab

Children of Bodom
Living Dead Beat

CGCFAD

Keyboard Intro
|-------17-17-------15-15-------------------------|
|-15-15-------15-15-------15-15-18-18-------17-17-|
|-------------------------------------17-17-------|
|-------------------------------------------------|
|-------------------------------------------------|
|-------------------------------------------------|

|-------17-17-------15-15-------------------------|
|-15-15-------15-15-------15-15-18-18-17-17-------|
|-------------------------------------------14-14-|
|-------------------------------------------------|
|-------------------------------------------------|
|-------------------------------------------------|

Guitar Intro                           Not sure about this.
|------------------------------------|-0////////////15-|
|------------------------------------|-0////////////15-|
|------------------------------------|-----------------|
|-------------0-0-------------///0-0-|-----------------|
|-------------0-0-------------///0-0-|-----------------|
|-------------0-0-------------///0-0-|-----------------|
              * *                * *

|---------------------------------|
|---------------------------------|
|---------------------------------|
|---------------------------------|
|---------------------------------|
|-000-0-000-00-------000-0-000-00-|
  *** * *** **       *** * *** **

|--------------------------|
|--------------------------|
|--------------------------|
|--------------------------|
|--------------------------|
|-12/////////////////////6-|
[ Tab from: http://www.guitartabs.cc/tabs/c/children_of_bodom/living_dead_beat_tab.html ]
                        1.      2.
|----------------------|-------|-------------------|
|----------------------|-------|-------------------|
|----------------------|-------|-------------------|
|----------------------|-------|------------3----5-|
|----------------------|-------|-00-00-0-11-1-33-3-|
|-00-0-0-00-0-0-00-0-0-|-00000-|-------------------|
  ** * * ** * * ** * *   *****   ** ** * **   **

              1.            2.
|-------------|-------------|-----------------|
|-------------|-------------|-----------------|
|-------------|-------------|-------------0-2-|
|-------------|---3-2---0-2-|---3-2-0-2-3-----|
|---5-3-0-3-5-|-0-----3-----|-0---------------|
|-0-----------|-------------|-----------------|
|
|
|-------------|-------------|-----------------|
|-------------|-------------|-----------------|
|-------------|-------------|-----------------|
|-------------|---3-2---0-2-|-------------2-3-|
|---5-3-0-3-5-|-0-----3-----|-0-5-3-0-3-5-----|
|-0-----------|-------------|-----------------|

Verse
|-------------------|---------------|
|-------------------|---------------|
|-------------------|---------------|
|-------------------|-----------555-|
|-------------------|-----------333-|
|-000-5b6r5-000-000-|-000-2b3r2-----|
  ***       *** ***   ***

|-------------------|------------------------|
|-------------------|------------------------|
|-------------------|------------------------|
|-------------------|------------------------|
|-------------------|-----------0000-023-245-|
|-000-5b6r5-000-000-|-000-2b3r2--------------|
  ***       *** ***   ***       **** *** *** 
Comments