Children Of Bodom - Downfall Chords & Tabs

 

Downfall Chords & Tabs

Children Of Bodom Chords & Tabs

Version: 3 Type: Tab 0 ratings
1 star 2 stars 3 stars 4 stars 5 stars
comments

Downfall Tab

   
DOWNFALL

Gtr I (D A D G B E) - 'Guitar 1'
Gtr II (D A D G B E) - 'Guitar 2'
Gtr III (E A D G B E) - 'Keyboard (Orchestra hit)'
Gtr IV (E A D G B E) - 'Keyboard (I don't know)'
Gtr V (E A D G B E) - 'Keyboard (solo)'


  Q=199
 4/4
  Gtr I
   W                         W
|-------------------------|-------------------------|
|-------------------------|-------------------------|
|-------------------------|-------------------------|
|-------------------------|-------------------------|
|-------------------------|-------------------------|
|-------------------------|-------------------------|
|
| Gtr IV
|  E  E  E  E  E  E  E  E    E  E  E  E  E  E  E  E
|-15----------15----------|-15----------15----------|
|----15----------15-------|----15----------15-------|
|-------------------------|-------------------------|
|-------17----------17----|-------17----------17----|
|----------17----------17-|----------17----------17-|
|-------------------------|-------------------------|


   W                         S S  E  E  E  E.    S  S S  S S
|-------------------------|-----------------------------------|
|-------------------------|-----------------------------------|
|-------------------------|-----------------------------------|
|-------------------------|----------------3-----1------------|
|-------------------------|----------------------5--1---------|
|-------------------------|--0-------0--0-------------3--0----|
|
|  E  E  E  E  E  E  E  E    E    E  E  E  E   E    E    E
|-15----------15----------|-15------------15------------------|
|----15----------15-------|------15-----------15--------------|
|-------------------------|-----------------------------------|
|-------17----------17----|---------17-------------17---------|
|----------17----------17-|------------17---------------17----|
|-------------------------|-----------------------------------|


   E  E  E  E  E  E  E  E    E  E  E  E  E  E  E  E
|-------------------------|-------------------------|
|-------------------------|-------------------------|
|--3-----------2----------|-------------------------|
|-----------3-----------3-|--5-----3--5--------3--5-|
|--------5-----------5----|-----5-----------5-------|
|-----5-----------5-------|--------------5----------|
|
|  E  E  E  E  E  E  E  E    E  E  E  E  E  E  E  E
|-15----------15----------|-15----------15----------|
|----15----------15-------|----15----------15-------|
|-------------------------|-------------------------|
|-------17----------17----|-------17----------17----|
|----------17----------17-|----------17----------17-|
|-------------------------|-------------------------|


   E  E  E  E  E  E  E  E    E  E  E  E  E  E  E  E
|-------------------------|-------------------------|
|-------------------------|-------------------------|
|--3-----------2----------|-------------------------|
|-----------3-----------3-|--5-----3--5--------3--5-|
|--------5-----------5----|-----5-----------5-------|
|-----5-----------5-------|--------------5----------|
|
|  E  E  E  E  E  E  E  E    E  E  E  E  E  E  E  E
|-15----------15----------|-15----------15----------|
|----15----------15-------|----15----------15-------|
|-------------------------|-------------------------|
|-------17----------17----|-------17----------17----|
|----------17----------17-|----------17----------17-|
|-------------------------|-------------------------|


   E  E  E  E  E  E  E  E    E   E  E  E  E  E  E  E
|-------------------------|--------------------------|
|-------------------------|--------------------------|
|--3-----------2----------|--------------------------|
|-----------3-----------3-|--5------3--5--------3--5-|
|--------5-----------5----|------5-----------5-------|
|-----5-----------5-------|---------------5----------|
|
| Gtr II
|  W                        +W
|-------------------------|--------------------------|
|-------------------------|--------------------------|
|-------------------------|--------------------------|
|--1----------------------|-(1)----------------------|
|--1----------------------|-(1)----------------------|
|--1----------------------|-(1)----------------------|
|
| Gtr IV
|  E  E  E  E  E  E  E  E    E   E  E  E  E  E  E  E
|-15----------15----------|-15-----------15----------|
|----16----------16-------|-----16----------16-------|
|-------15----------15----|--------15----------15----|
|----------17----------17-|-----------17----------17-|
|-------------------------|--------------------------|
|-------------------------|--------------------------|


   E  E  E  E  E  E  E  E    E  E  E  E  E  E  E  E
|-------------------------|-------------------------|
|-------------------------|-------------------------|
|--3-----------2----------|--------------------3--2-|
|-----------3-----------3-|--5-----3--5-------------|
|--------5-----------5----|-----5-----------5-------|
|-----5-----------5-------|--------------5----------|
|
|  Q     Q     H             H           E  E  Q
|-------------------------|-------------------------|
|-------------------------|-------------------------|
|-------------------------|-------------------------|
|--1----------------------|--------------0--3-------|
|--1----------------------|--------------0--3-------|
|--1----------------------|--------------0--3-------|
|
|  E  E  E  E  E  E  E  E    E  E  E  E  E  E  E  E
|-15----------17----------|-15----------15----------|
|----16----------16-------|----16----------16-------|
|-------15----------15----|-------15----------15----|
|----------17----------17-|----------17----------17-|
|-------------------------|-------------------------|
|-------------------------|-------------------------|


   E  E  E  E  E  E  E  E    E   E  E  E  E  E  E  E
|-------------------------|--------------------------|
|-------------------------|--------------------------|
|--3-----------2----------|--------------------------|
|-----------3-----------3-|--5------3--5--------3--5-|
|--------5-----------5----|------5-----------5-------|
|-----5-----------5-------|---------------5----------|
|
|  W                        +W
|-------------------------|--------------------------|
|-------------------------|--------------------------|
|-------------------------|--------------------------|
|--5----------------------|-(5)----------------------|
|--5----------------------|-(5)----------------------|
|--5----------------------|-(5)----------------------|
|
|  E  E  E  E  E  E  E  E    E   E  E  E  E  E  E  E
|-15----------15----------|-15-----------15----------|
|----15----------15-------|-----15----------15-------|
|-------------------------|--------------------------|
|-------17----------17----|--------17----------17----|
|----------17----------17-|-----------17----------17-|
|-------------------------|--------------------------|


   E  E  E  E  E  E  E  E    E  E  E  E  E  E  E  E
|-------------------------|-------------------------|
|-------------------------|-------------------------|
|--3-----------2----------|-------------------------|
|-----------3-----------3-|--5-----3--5--------3--5-|
|--------5-----------5----|-----5-----------5-------|
|-----5-----------5-------|--------------5----------|
|
|  Q     Q     H             W
|-------------------------|-------------------------|
|-------------------------|-------------------------|
|-------------------------|-------------------------|
|--5----------------------|-------------------------|
|--5----------------------|-------------------------|
|--5----------------------|-------------------------|
|
|  E  E  E  E  E  E  E  E    E  E  E  E  E  E  E  E
|-15----------15----------|-15----------15----------|
|----15----------15-------|----15----------15-------|
|-------------------------|-------------------------|
|-------17----------17----|-------17----------17----|
|----------17----------17-|----------17----------17-|
|-------------------------|-------------------------|


   E  E  E  E  E  E  E  E    E   E  E  E  E  E  E  E
|-------------------------|--------------------------|
|-------------------------|--------------------------|
|--3-----------2----------|--------------------------|
|-----------3-----------3-|--5------3--5--------3--5-|
|--------5-----------5----|------5-----------5-------|
|-----5-----------5-------|---------------5----------|
|
|  W                        +W
|-------------------------|--------------------------|
|-------------------------|--------------------------|
|-------------------------|--------------------------|
|--1----------------------|-(1)----------------------|
|--1----------------------|-(1)----------------------|
|--1----------------------|-(1)----------------------|
|
|  E  E  E  E  E  E  E  E    E   E  E  E  E  E  E  E
|-15----------15----------|-15-----------15----------|
|----16----------16-------|-----16----------16-------|
|-------15----------15----|--------15----------15----|
|----------17----------17-|-----------17----------17-|
|-------------------------|--------------------------|
|-------------------------|--------------------------|


   E  E  E  E  E  E  E  E    E  E  E  E  E  E  E  E
|-------------------------|-------------------------|
|-------------------------|-------------------------|
|--3-----------2----------|--------------------3--2-|
|-----------3-----------3-|--5-----3--5-------------|
|--------5-----------5----|-----5-----------5-------|
|-----5-----------5-------|--------------5----------|
|
|  E  E  Q     H             W
|-------------------------|-------------------------|
|-------------------------|-------------------------|
|-------------------------|-------------------------|
|--1--1-------------------|-------------------------|
|--1--1-------------------|-------------------------|
|--1--1-------------------|-------------------------|
|
|  E  E  E  E  E  E  E  E    E  E  E  E  E  E  E  E
|-15----------17----------|-15----------15----------|
|----16----------16-------|----16----------16-------|
|-------15----------15----|-------15----------15----|
|----------17----------17-|----------17----------17-|
|-------------------------|-------------------------|
|-------------------------|-------------------------|


   E  E  E  E  E  E  E  E    E  E  E  E  E  E  E  E
|-------------------------|-------------------------|
|-------------------------|-------------------------|
|--3-----------2----------|-------------------------|
|-----------3-----------3-|--5-----3--5--------3--5-|
|--------5-----------5----|-----5-----------5-------|
|-----5-----------5-------|--------------5----------|
|
|  E  E  E  E  E  E  E  E    E  E  E  E  E  E  E  E
|-------------------------|-------------------------|
|-------------------------|-------------------------|
|-------------------------|-------------------------|
|--5--5--5--5--5--5--5--5-|--5--5--5--5--5--5--5--5-|
|--5--5--5--5--5--5--5--5-|--5--5--5--5--5--5--5--5-|
|--5--5--5--5--5--5--5--5-|--5--5--5--5--5--5--5--5-|
|
|  E  E  E  E  E  E  E  E    E  E  E  E  E  E  E  E
|-15----------15----------|-15----------15----------|
|----15----------15-------|----15----------15-------|
|-------------------------|-------------------------|
|-------17----------17----|-------17----------17----|
|----------17----------17-|----------17----------17-|
|-------------------------|-------------------------|


   E  E  E  E  E  E  E  E    E  E  E  E  E  E  E  E
|-------------------------|-------------------------|
|-------------------------|-------------------------|
|--3-----------2----------|-------------------------|
|-----------3-----------3-|--5-----3--5--------3--5-|
|--------5-----------5----|-----5-----------5-------|
|-----5-----------5-------|--------------5----------|
|
|  E  E  E  E  E  E  E  E    Q     Q     Q     Q
|-------------------------|-------------------------|
|-------------------------|-------------------------|
|-------------------------|-------------------------|
|--5--5--5--5--5--5--5--5-|-------------------------|
|--5--5--5--5--5--5--5--5-|-------------------------|
|--5--5--5--5--5--5--5--5-|--7-----8----10----12----|
|
|  E  E  E  E  E  E  E  E    E  E  E  E  E  E  E  E
|-15----------15----------|-15----------15----------|
|----15----------15-------|----15----------15-------|
|-------------------------|-------------------------|
|-------17----------17----|-------17----------17----|
|----------17----------17-|----------17----------17-|
|-------------------------|-------------------------|


   E  E  E  E  E  E  E  E    E  E  E  E  E  E  E  E
|-------------------------|-------------------------|
|-------------------------|-------------------------|
|--3-----------2----------|-------------------------|
|-----------3-----------3-|--5-----3--5--------3--5-|
|--------5-----------5----|-----5-----------5-------|
|-----5-----------5-------|--------------5----------|
|
|  E  E  E  E  E  E  E  E    E  E  E  E  E  E  E  E
|-------------------------|-------------------------|
|-------------------------|-------------------------|
|-------------------------|-------------------------|
|-13-13-13-13-13-13-13-13-|-13-13-13-13-13-13-13-13-|
|-13-13-13-13-13-13-13-13-|-13-13-13-13-13-13-13-13-|
|-13-13-13-13-13-13-13-13-|-13-13-13-13-13-13-13-13-|
|
|  E  E  E  E  E  E  E  E    E  E  E  E  E  E  E  E
|-15----------15----------|-15----------15----------|
|----16----------16-------|----16----------16-------|
|-------15----------15----|-------15----------15----|
|----------17----------17-|----------17----------17-|
|-------------------------|-------------------------|
|-------------------------|-------------------------|


   E  E  E  E  E  E  E  E    E  E  E  E  E  E  E  E
|-------------------------|-------------------------|
|-------------------------|-------------------------|
|--3-----------2----------|--------------------3--2-|
|-----------3-----------3-|--5-----3--5-------------|
|--------5-----------5----|-----5-----------5-------|
|-----5-----------5-------|--------------5----------|
|
|  E  E  E  E  E  E  E  E    E  E  E  E  E  E  E  E
|-------------------------|-------------------------|
|-------------------------|-------------------------|
|-------------------------|-------------------------|
|-13-13-13-13-13-13-13-13-|-13-13-13-13-13-13-13-13-|
|-13-13-13-13-13-13-13-13-|-13-13-13-13-13-13-13-13-|
|-13-13-13-13-13-13-13-13-|-13-13-13-13-13-13-13-13-|
|
|  E  E  E  E  E  E  E  E    E  E  E  E  E  E  E  E
|-15----------17----------|-15----------15----------|
|----16----------16-------|----16----------16-------|
|-------15----------15----|-------15----------15----|
|----------17----------17-|----------17----------17-|
|-------------------------|-------------------------|
|-------------------------|-------------------------|


   E  E  E  E  E  E  E  E    E  E  E  E  E  E  E  E
|-------------------------|-------------------------|
|-------------------------|-------------------------|
|--3-----------2----------|-------------------------|
|-----------3-----------3-|--5-----3--5--------3--5-|
|--------5-----------5----|-----5-----------5-------|
|-----5-----------5-------|--------------5----------|
|
|  E  E  E  E  E  E  E  E    E  E  E  E  E  E  E  E
|-------------------------|-------------------------|
|-------------------------|-------------------------|
|-------------------------|-------------------------|
|--5--5--5--5--5--5--5--5-|--5--5--5--5--5--5--5--5-|
|--5--5--5--5--5--5--5--5-|--5--5--5--5--5--5--5--5-|
|--5--5--5--5--5--5--5--5-|--5--5--5--5--5--5--5--5-|
|
|  E  E  E  E  E  E  E  E    E  E  E  E  E  E  E  E
|-15----------15----------|-15----------15----------|
|----15----------15-------|----15----------15-------|
|-------------------------|-------------------------|
|-------17----------17----|-------17----------17----|
|----------17----------17-|----------17----------17-|
|-------------------------|-------------------------|


   E  E  E  E  E  E  E  E    E  E  E  E  E  E  E  E
|-------------------------|-------------------------|
|-------------------------|-------------------------|
|--3-----------2----------|-------------------------|
|-----------3-----------3-|--5-----3--5--------3--5-|
|--------5-----------5----|-----5-----------5-------|
|-----5-----------5-------|--------------5----------|
|
|  E  E  E  E  E  E  E  E    Q     Q     Q     Q
|-------------------------|-------------------------|
|-------------------------|-------------------------|
|-------------------------|-------------------------|
|--5--5--5--5--5--5--5--5-|-------------------------|
|--5--5--5--5--5--5--5--5-|-------------------------|
|--5--5--5--5--5--5--5--5-|--7-----8----10----12----|
|
|  E  E  E  E  E  E  E  E    E  E  E  E  E  E  E  E
|-15----------15----------|-15----------15----------|
|----15----------15-------|----15----------15-------|
|-------------------------|-------------------------|
|-------17----------17----|-------17----------17----|
|----------17----------17-|----------17----------17-|
|-------------------------|-------------------------|


   E  E  E  E  E  E  E  E    E  E  E  E  E  E  E  E
|-------------------------|-------------------------|
|-------------------------|-------------------------|
|--3-----------2----------|-------------------------|
|-----------3-----------3-|--5-----3--5--------3--5-|
|--------5-----------5----|-----5-----------5-------|
|-----5-----------5-------|--------------5----------|
|
|  E  E  E  E  E  E  E  E    E  E  E  E  E  E  E  E
|-------------------------|-------------------------|
|-------------------------|-------------------------|
|-------------------------|-------------------------|
|-13-13-13-13-13-13-13-13-|-13-13-13-13-13-13-13-13-|
|-13-13-13-13-13-13-13-13-|-13-13-13-13-13-13-13-13-|
|-13-13-13-13-13-13-13-13-|-13-13-13-13-13-13-13-13-|
|
|  E  E  E  E  E  E  E  E    E  E  E  E  E  E  E  E
|-15----------15----------|-15----------15----------|
|----16----------16-------|----16----------16-------|
|-------15----------15----|-------15----------15----|
|----------17----------17-|----------17----------17-|
|-------------------------|-------------------------|
|-------------------------|-------------------------|


   E  E  E  E  E  E  E  E    E  E  E  E E E Q
|-------------------------|--------------------|
|--3-----------1----------|--------------------|
|--3-----------2----------|--3--------3--------|
|-----------3-----------3-|--5-----3--5-3-1----|
|--------5-----------5----|-----5-------3-1----|
|-----5-----------5-------|-------------3-1----|
|
|  E  E  E  E  E  E  E  E    E  E  E  E E E Q
|-------------------------|--------------------|
|-------------------------|--------------------|
|-------------------------|--------------------|
|-13-13-13-13-13-13-13-13-|-13-13-13-13-3-1----|
|-13-13-13-13-13-13-13-13-|-13-13-13-13-3-1----|
|-13-13-13-13-13-13-13-13-|-13-13-13-13-3-1----|
|
|  E  E  E  E  E  E  E  E    E  E  E  E H
|-15----------17----------|-15-----------------|
|----16----------16-------|----16--------------|
|-------15----------15----|-------15-----------|
|----------17----------17-|----------17--------|
|-------------------------|--------------------|
|-------------------------|--------------------|


  Gtrs I, II
  W          W          W          W
|----------|----------|----------|------|
|----------|----------|----------|------|
|----------|----------|----------|------|
|-0--------|-1--------|-5--------|-8----|
|-0--------|-1--------|-5--------|-8----|
|-0--------|-1--------|-5--------|-8----|


  Gtr I
  W          W          W          W
|----------|----------|----------|------|
|----------|----------|----------|------|
|----------|----------|----------|-7----|
|-1--------|-5--------|-8--------|-7----|
|-1--------|-5--------|-8--------|-5----|
|-1--------|-5--------|-8--------|------|
|
| Gtr II
| W          W          W          W
|----------|----------|----------|------|
|----------|----------|----------|------|
|----------|----------|----------|------|
|-1--------|-5--------|-3--------|-4----|
|-1--------|-5--------|----------|------|
|-1--------|-5--------|----------|------|


  E E E E E E E E   E E E E E E E E
|-----------------|-----------------|
|-----------------|-----------------|
|-7-7-7-7-7-7-7-7-|-8-8-8-8-8-8-8-8-|
|-----------------|-----------------|
|-5-5-5-5-5-5-5-5-|-6-6-6-6-6-6-6-6-|
|-----------------|-----------------|
|
| E E E E E E E E   E E E E E E E E
|-----------------|-----------------|
|-6-6-6-6-6-6-6-6-|-8-8-8-8-8-8-8-8-|
|-7-7-7-7-7-7-7-7-|-8-8-8-8-8-8-8-8-|
|-----------------|-----------------|
|-----------------|-----------------|
|-----------------|-----------------|


  E E E E E E E E    E  E  E  E  E  E  E  E
|-----------------|-------------------------|
|-8-8-8-8-8-8-8-8-|-11-11-11-11-11-11-11-11-|
|-0-0-0-0-0-0-0-0-|-------------------------|
|-----------------|--8--8--8--8--8--8--8--8-|
|-----------------|-------------------------|
|-----------------|-------------------------|
|
| E E E E E E E E    E  E  E  E  E  E  E  E
|-----------------|-------------------------|
|-----------------|--6--6--6--6--6--6--6--6-|
|-7-7-7-7-7-7-7-7-|--7--7--7--7--7--7--7--7-|
|-8-8-8-8-8-8-8-8-|-------------------------|
|-----------------|-------------------------|
|-----------------|-------------------------|


  E E E E E E E E   E E E E E E E E
|-----------------|-----------------|
|-----------------|-8-8-8-8-8-8-8-8-|
|-8-8-8-8-8-8-8-8-|-0-0-0-0-0-0-0-0-|
|-----------------|-----------------|
|-6-6-6-6-6-6-6-6-|-----------------|
|-----------------|-----------------|
|
| E E E E E E E E   E E E E E E E E
|-----------------|-----------------|
|-8-8-8-8-8-8-8-8-|-----------------|
|-8-8-8-8-8-8-8-8-|-7-7-7-7-7-7-7-7-|
|-----------------|-8-8-8-8-8-8-8-8-|
|-----------------|-----------------|
|-----------------|-----------------|


   E  E  E  E  E  E  E  E    E  E  E  E  E  E  E  E
|-------------------------|-10-10-10-10-10-10-10-10-|
|-11-11-11-11-11-11-11-11-|-------------------------|
|-------------------------|--7--7--7--7--7--7--7--7-|
|--8--8--8--8--8--8--8--8-|-------------------------|
|-------------------------|-------------------------|
|-------------------------|-------------------------|
|
|  E  E  E  E  E  E  E  E    E  E  E  E  E  E  E  E
|-------------------------|-------------------------|
|--6--6--6--6--6--6--6--6-|--6--6--6--6--6--6--6--6-|
|--7--7--7--7--7--7--7--7-|--7--7--7--7--7--7--7--7-|
|-------------------------|-------------------------|
|-------------------------|-------------------------|
|-------------------------|-------------------------|


  E E E E E E E E   E E E E E E E E
|-----------------|-----------------|
|-----------------|-----------------|
|-7-7-7-7-7-7-7-7-|-8-8-8-8-8-8-8-8-|
|-0-0-0-0-0-0-0-0-|-----------------|
|-----------------|-6-6-6-6-6-6-6-6-|
|-----------------|-----------------|
|
| E E E E E E E E   E E E E E E E E
|-----------------|-----------------|
|-6-6-6-6-6-6-6-6-|-8-8-8-8-8-8-8-8-|
|-7-7-7-7-7-7-7-7-|-8-8-8-8-8-8-8-8-|
|-----------------|-----------------|
|-----------------|-----------------|
|-----------------|-----------------|


  E E E E E E E E    E  E  E  E  E  E  E  E
|-----------------|-------------------------|
|-8-8-8-8-8-8-8-8-|-11-11-11-11-11-11-11-11-|
|-0-0-0-0-0-0-0-0-|-------------------------|
|-----------------|--8--8--8--8--8--8--8--8-|
|-----------------|-------------------------|
|-----------------|-------------------------|
|
| E E E E E E E E    E  E  E  E  E  E  E  E
|-----------------|-------------------------|
|-----------------|--6--6--6--6--6--6--6--6-|
|-7-7-7-7-7-7-7-7-|--7--7--7--7--7--7--7--7-|
|-8-8-8-8-8-8-8-8-|-------------------------|
|-----------------|-------------------------|
|-----------------|-------------------------|


  E E E E E E E E   E E E E E E E E
|-----------------|-----------------|
|-----------------|-8-8-8-8-8-8-8-8-|
|-8-8-8-8-8-8-8-8-|-0-0-0-0-0-0-0-0-|
|-----------------|-----------------|
|-6-6-6-6-6-6-6-6-|-----------------|
|-----------------|-----------------|
|
| E E E E E E E E   E E E E E E E E
|-----------------|-----------------|
|-8-8-8-8-8-8-8-8-|-----------------|
|-8-8-8-8-8-8-8-8-|-7-7-7-7-7-7-7-7-|
|-----------------|-8-8-8-8-8-8-8-8-|
|-----------------|-----------------|
|-----------------|-----------------|


   E  E  E  E  E  E  E  E    E  E  E  E  E  E  E  E
|-------------------------|-10-10-10-10-10-10-10-10-|
|-11-11-11-11-11-11-11-11-|-------------------------|
|-------------------------|--7--7--7--7--7--7--7--7-|
|--8--8--8--8--8--8--8--8-|-------------------------|
|-------------------------|-------------------------|
|-------------------------|-------------------------|
|
|  E  E  E  E  E  E  E  E    E  E  E  E  E  E  E  E
|-------------------------|-------------------------|
|--6--6--6--6--6--6--6--6-|--6--6--6--6--6--6--6--6-|
|--7--7--7--7--7--7--7--7-|--7--7--7--7--7--7--7--7-|
|-------------------------|-------------------------|
|-------------------------|-------------------------|
|-------------------------|-------------------------|


  Gtrs I, II
   E  E  S S  E  E  E  E  E    W
|---------------------------|-------------------------|
|---------------------------|-------------------------|
|---------------------------|-------------------------|
|--5----------6-----3-----5-|-------------------------|
|--5----------6-----3-----5-|-------------------------|
|--5-----5-5--6-----3-----5-|-------------------------|
|
| Gtr IV
|  E  E  E    E  E  E  E  E    E  E  E  E  E  E  E  E
|-15------------15----------|-15----------15----------|
|----15------------15-------|----15----------15-------|
|---------------------------|-------------------------|
|-------17------------17----|-------17----------17----|
|------------17----------17-|----------17----------17-|
|---------------------------|-------------------------|


   E  E  S S  E  E  E  E  E    W
|---------------------------|-------------------------|
|---------------------------|-------------------------|
|---------------------------|-------------------------|
|--6----------1-----3-----6-|-------------------------|
|--6----------1-----3-----6-|-------------------------|
|--6-----1-1--1-----3-----6-|-------------------------|
|
|  E  E  E    E  E  E  E  E    E  E  E  E  E  E  E  E
|-16------------16----------|-16----------16----------|
|----16------------16-------|----16----------16-------|
|---------------------------|-------------------------|
|-------18------------18----|-------18----------18----|
|------------18----------18-|----------18----------18-|
|---------------------------|-------------------------|


  Gtr I
   E  E  S S  E  E  E  E  E    W
|---------------------------|-------------------------|
|---------------------------|-------------------------|
|---------------------------|-------------------------|
|--5----------6-----3-----5-|-------------------------|
|--5----------6-----3-----5-|-------------------------|
|--5-----5-5--6-----3-----5-|-------------------------|
|
| Gtr II
|  E  E  S S  E  E  E  E  E    W
|---------------------------|-------------------------|
|---------------------------|-------------------------|
|---------------------------|-------------------------|
|--5----------6-----3-----5-|-------------------------|
|--5----------6-----3-----5-|-------------------------|
|--5-----5-5--6-----3-----5-|-------------------------|
|
| Gtr IV
|  E  E  E    E  E  E  E  E    E  E  E  E  E  E  E  E
|---------------15----------|-15----------15----------|
|-20---------------15-------|----15----------15-------|
|----19---------------------|-------------------------|
|-------17------------17----|-------17----------17----|
|------------17----------17-|----------17----------17-|
|---------------------------|-------------------------|


   E  E  S S  E  E  E  E  E    E  E  E  E  E  S  S  E  E
|---------------------------|-----------------------------|
|---------------------------|-----8-10-11-13-11-13--------|
|---------------------------|-------------------15-14-14--|
|--6----------1-----3-----6-|-----------------------------|
|--6----------1-----3-----6-|-----------------------------|
|--6-----1-1--1-----3-----6-|-----------------------------|
|
|  E  E  S S  E  E  E  E  E    E  E  E  E  E  S  S  E  E
|---------------------------|-----------------------------|
|---------------------------|-----4--6--8-10--8-10--------|
|---------------------------|-------------------12-10-10--|
|--6----------1-----3-----6-|-----------------------------|
|--6----------1-----3-----6-|-----------------------------|
|--6-----1-1--1-----3-----6-|-----------------------------|
|
|  E  E  E    E  E  E  E  E    E  E  E  E  E  E     E  E
|-16------------16----------|-16----------16--------------|
|----16------------16-------|----16----------16-----------|
|---------------------------|-----------------------------|
|-------18------------18----|-------18-------------18-----|
|------------18----------18-|----------18-------------18--|
|---------------------------|-----------------------------|


   Q     S  S  S  S  S S  E  Q       W
|---------------------------------|-------------------------|
|---------------------------------|-------------------------|
|-15----14------------------------|-------------------------|
|-------18-16-13-10--8------------|-------------------------|
|----------20-17-14---------------|-------------------------|
|---------------------------------|-------------------------|
|
|  Q     S  S  S  S  S S  E  Q       W
|---------------------------------|-------------------------|
|--8-----7------------------------|-------------------------|
|-------10--8---------------------|-------------------------|
|----------12--9--6--4------------|-------------------------|
|-------------13-10--8------------|-------------------------|
|---------------------------------|-------------------------|
|
|  E  E  E     E     E    E  E  E    E  E  E  E  E  E  E  E
|---------------------------------|----13-12-13----13----13-|
|----15-13----15---------15-------|-------------14----13----|
|-------------------15------14-15-|-------------------------|
|---------------------------------|-15----------------------|
|-17------------------------------|-------------------------|
|---------------------------------|-------------------------|


   W                         W
|-------------------------|--------------------------|
|-------------------------|--------------------------|
|-------------------------|--------------------------|
|-------------------------|--------------------------|
|-------------------------|--------------------------|
|-------------------------|--------------------------|
|
|  W                         W
|-------------------------|--------------------------|
|-------------------------|--------------------------|
|-------------------------|--------------------------|
|-------------------------|--------------------------|
|-------------------------|--------------------------|
|-------------------------|--------------------------|
|
|  E  E  E  E  E  E  E  E    E  E  E  E  E  E  E  E
|-------------------------|----11-10-11----11----10--|
|----13-11-13----13-------|-------------13----11-----|
|-------------13----12-13-|-12-----------------------|
|-------------------------|--------------------------|
|-15----------------------|--------------------------|
|-------------------------|--------------------------|


   W                        W
|------------------------|-------------------------|
|------------------------|-------------------------|
|------------------------|-------------------------|
|------------------------|-------------------------|
|------------------------|-------------------------|
|------------------------|-------------------------|
|
|  W                        W
|------------------------|-------------------------|
|------------------------|-------------------------|
|------------------------|-------------------------|
|------------------------|-------------------------|
|------------------------|-------------------------|
|------------------------|-------------------------|
|
|  E  E E  E  E  E  E  E    E  E  E  E  E  E  E  E
|----10-8-10----10-------|----13-12-13----13----13-|
|------------11----10-11-|-------------14----13----|
|------------------------|-10----------------------|
|-12---------------------|-------------------------|
|------------------------|-------------------------|
|------------------------|-------------------------|


   W                         S S  E  E.    S  S S  E    S S  S S
|-------------------------|--------------------------------------|
|-------------------------|--------------------------------------|
|-------------------------|--------------------------------------|
|-------------------------|---------------------1--3------2------|
|-------------------------|-------------------2-5--7------6--3-0-|
|-------------------------|--0-------3-----5---------------------|
|
|  W                         S S  E  E.    S  S S  S S  S S  S S
|-------------------------|--------------------------------------|
|-------------------------|------------------------2------1------|
|-------------------------|---------------------3--6------4--2---|
|-------------------------|-------------------3-7------------6-3-|
|-------------------------|----------1-----4--7----------------7-|
|-------------------------|--0-----------------------------------|
|
|  E  E  E  E  E  E  E  E    E    E  E   E    E    E    E    E
|-------------------------|------11-10--11--------11--------10---|
|----13-11-13----13-------|------------------13--------11--------|
|-------------13----12-13-|-12-----------------------------------|
|-------------------------|--------------------------------------|
|-15----------------------|--------------------------------------|
|-------------------------|--------------------------------------|


  Gtrs I, II
   H.                Q       W
|-------------------------|-------------------------|
|-------------------------|-------------------------|
|-------------------------|-------------------------|
|--5----------------------|--8----------------------|
|--5----------------------|--8----------------------|
|--5----------------------|--8----------------------|
|
| Gtr IV
|  E   E E  E  E  E  E  E    E  E  E  E  E  E  E  E
|-----10-8-10----10-------|----13-12-13----13----13-|
|-------------11----10-11-|-------------14----13----|
|-------------------------|-10----------------------|
|-12----------------------|-------------------------|
|-------------------------|-------------------------|
|-------------------------|-------------------------|


   W                         W
|-------------------------|-------------------------|
|-------------------------|-------------------------|
|-------------------------|--5----------------------|
|--3----------------------|--5----------------------|
|--3----------------------|--3----------------------|
|--3----------------------|-------------------------|
|
|  E  E  E  E  E  E  E  E    E  E  E  E  E  E  E  E
|-------------------------|----11-10-11----11----10-|
|----13-11-13----13-------|-------------13----11----|
|-------------13----12-13-|-12----------------------|
|-------------------------|-------------------------|
|-15----------------------|-------------------------|
|-------------------------|-------------------------|


   W                        W
|------------------------|-------------------------|
|------------------------|-------------------------|
|------------------------|-------------------------|
|--5---------------------|--8----------------------|
|--5---------------------|--8----------------------|
|--5---------------------|--8----------------------|
|
|  E  E E  E  E  E  E  E    E  E  E  E  E  E  E  E
|----10-8-10----10-------|----13-12-13----13----13-|
|------------11----10-11-|-------------14----13----|
|------------------------|-10----------------------|
|-12---------------------|-------------------------|
|------------------------|-------------------------|
|------------------------|-------------------------|


   W                         W
|-------------------------|-------------------------|
|-------------------------|-------------------------|
|-------------------------|--5----------------------|
|--3----------------------|--5----------------------|
|--3----------------------|--3----------------------|
|--3----------------------|-------------------------|
|
|  E  E  E  E  E  E  E  E    E  E  E  E  E  E  E  E
|-------------------------|----11-10-11----11----10-|
|----13-11-13----13-------|-------------13----11----|
|-------------13----12-13-|-12----------------------|
|-------------------------|-------------------------|
|-15----------------------|-------------------------|
|-------------------------|-------------------------|


  Gtr I
  E  E  E  E  +E   E  E  E    +E   E  E  E  +E   E  E E    W
|--------------------------|----------------------------|-------|
|--------------------------|----------------------------|-------|
|--------------------------|----------------------------|-------|
|-5-----5--3--(3)-----3--5-|--(5)-----5--3--(3)-----3---|--1----|
|-5-----5--3--(3)-----3--5-|--(5)-----5--3--(3)-----3---|--1----|
|-5--5--5--3--(3)--3--3--5-|--(5)--5--5--3--(3)--3--3-1-|--1----|
|
| Gtr II
| E  E  E  E  +E   E  E  E    +E   E  E  E  +E   E  Q      W
|--------------------------|----------------------------|-------|
|--------------------------|----------------------------|--8----|
|--------------------------|------------10-(10)----10---|-------|
|-5--7--8-10-(10)--8-10-12-|-(12)-10-12---------12------|-------|
|--------------------------|----------------------------|-------|
|--------------------------|----------------------------|-------|
|
| Gtr IV
| E  E  E  E  +E   E  E  E    +E   E  E  E  +E   E  Q      W
|--------------------------|------------13-(13)----13---|-15----|
|-8-10-11-13-(13)-11-13-15-|-(15)-13-15---------15------|-------|
|--------------------------|----------------------------|-------|
|--------------------------|----------------------------|-------|
|--------------------------|----------------------------|-------|
|--------------------------|----------------------------|-------|


   S  S S S S S E S S S S S S E    H           H         H           H
|-------------------------------|---------------------|---------------------|
|-------------------------------|---------------------|---------------------|
|-------------------------------|---------------------|---------------------|
|-------------------------------|--5-----------0------|--5-----------0------|
|-------------------------------|--5-----------0------|--5-----------0------|
|--1--1-1-1-1-----1-1-1-1-1-----|--5-----------0------|--5-----------0------|
|
| +W                               E  E  E  E  Q   Q     E  E  E  E  Q   Q
|-------------------------------|-18-------18-17------|-18-------18-17------|
|-(8)---------------------------|-------20--------18--|-------20--------18--|
|-------------------------------|----19---------------|----19---------------|
|-------------------------------|---------------------|---------------------|
|-------------------------------|---------------------|---------------------|
|-------------------------------|---------------------|---------------------|


   H           H             H           H
|-------------------------|---------------------|
|-------------------------|---------------------|
|-------------------------|---------------------|
|--1-----------3----------|--5-----------0------|
|--1-----------3----------|--5-----------0------|
|--1-----------3----------|--5-----------0------|
|
|  E  E  E  E  E  E  E  E    E  E  E  E  Q   Q
|-------------------------|---------------------|
|-20-------20-22-------22-|-23-------23-22------|
|-------20----------22----|-------24--------22--|
|----20----------22-------|----24---------------|
|-------------------------|---------------------|
|-------------------------|---------------------|


   H           H         H           H
|---------------------|---------------------|
|---------------------|---------------------|
|---------------------|---------------------|
|--5-----------0------|--5-----------0------|
|--5-----------0------|--5-----------0------|
|--5-----------0------|--5-----------0------|
|
|  E  E  E  E  Q   Q     E  E  E  E  Q   Q
|---------------------|---------------------|
|-23-------23-22------|-23-------23-22------|
|-------24--------22--|-------24--------22--|
|----24---------------|----24---------------|
|---------------------|---------------------|
|---------------------|---------------------|


   H           H             E  E  E  E  H
|-------------------------|---------------------|
|-------------------------|---------------------|
|-------------------------|---------------------|
|--1-----------3----------|--5------------------|
|--1-----------3----------|--5-----------8------|
|--1-----------3----------|--5--7--8-10---------|
|
|  E  E  E  E  E  E  E  E    E  E  E  E  Q   Q
|-------------------------|---------------------|
|-20-------20-22-------22-|-23-------23-22------|
|-------20----------22----|-------24--------22--|
|----20----------22-------|----24---------------|
|-------------------------|---------------------|
|-------------------------|---------------------|


   H           H         H           H
|---------------------|---------------------|
|---------------------|---------------------|
|---------------------|---------------------|
|--5-----------0------|--5-----------0------|
|--5-----------0------|--5-----------0------|
|--5-----------0------|--5-----------0------|
|
|  E  E  E  E  Q   Q     E  E  E  E  Q   Q
|---------------------|---------------------|
|-23-------23-22------|-23-------23-22------|
|-------24--------22--|-------24--------22--|
|----24---------------|----24---------------|
|---------------------|---------------------|
|---------------------|---------------------|


   H           H             H           H
|-------------------------|---------------------|
|-------------------------|---------------------|
|-------------------------|---------------------|
|--1-----------3----------|--5-----------0------|
|--1-----------3----------|--5-----------0------|
|--1-----------3----------|--5-----------0------|
|
|  E  E  E  E  E  E  E  E    E  E  E  E  Q   Q
|-------------------------|---------------------|
|-20-------20-22-------22-|-23-------23-22------|
|-------20----------22----|-------24--------22--|
|----20----------22-------|----24---------------|
|-------------------------|---------------------|
|-------------------------|---------------------|


   H           H         H           H
|---------------------|---------------------|
|---------------------|---------------------|
|---------------------|---------------------|
|--5-----------0------|--5-----------0------|
|--5-----------0------|--5-----------0------|
|--5-----------0------|--5-----------0------|
|
|  E  E  E  E  Q   Q     E  E  E  E  Q   Q
|---------------------|---------------------|
|-23-------23-22------|-23-------23-22------|
|-------24--------22--|-------24--------22--|
|----24---------------|----24---------------|
|---------------------|---------------------|
|---------------------|---------------------|


   H           H             W
|-------------------------|---------------------|
|-------------------------|---------------------|
|-------------------------|---------------------|
|--1-----------3----------|--5------------------|
|--1-----------3----------|--5------------------|
|--1-----------3----------|--5------------------|
|
|  E  E  E  E  E  E  E  E    E  E  E  E  Q   Q
|-------------------------|---------------------|
|-20-------20-22-------22-|-23-------23-22------|
|-------20----------22----|-------24--------22--|
|----20----------22-------|----24---------------|
|-------------------------|---------------------|
|-------------------------|---------------------|
|
| Gtr III
|  W                         W
|-------------------------|---------------------|
|-------------------------|---------------------|
|-------------------------|---------------------|
|-------------------------|---------------------|
|-------------------------|---------------------|
|-------------------------|---------------------|


   E  E S S  E   E   E   E   E     E  E E E E E E E
|------------------------------|---------------------|
|------------------------------|------3-1-3-4-3-1-3--|
|------------------------------|---------------------|
|--5---------6-------3-------5-|---------------------|
|--5---------6-------3-------5-|---------------------|
|--5----5-5--6-------3-------5-|---------------------|
|
|  E  E S S  E   E   E   E   E     E  E E E E E E E
|------------------------------|---------------------|
|------------------------------|---------------------|
|------------------------------|---------------------|
|--5---------6-------3-------5-|------5-3-5-6-5-3-5--|
|--5---------6-------3-------5-|---------------------|
|--5----5-5--6-------3-------5-|---------------------|
|
|  Q.        E  +E   E  +E   E    +E  E Q   H
|-15--------16-(16)------------|---------------------|
|-------------------18-(18)-20-|-(20)----------------|
|-12--------13-(13)------------|---------------------|
|-------------------15-(15)-17-|-(17)----------------|
|------------------------------|---------------------|
|------------------------------|---------------------|


   E  E S S  E   E   E   E   E     E  E E E E E E E
|------------------------------|--------------------|
|------------------------------|------4-3-4-6-4-3-4-|
|------------------------------|--------------------|
|--6---------1-------3-------6-|--------------------|
|--6---------1-------3-------6-|--------------------|
|--6----1-1--1-------3-------6-|--------------------|
|
|  E  E S S  E   E   E   E   E     E  E E E E E E E
|------------------------------|--------------------|
|------------------------------|--------------------|
|------------------------------|--------------------|
|--6---------1-------3-------6-|------6-5-6-8-6-5-6-|
|--6---------1-------3-------6-|--------------------|
|--6----1-1--1-------3-------6-|--------------------|
|
|  Q.        E  +E   E  +E   E    +E  E Q   H
|------------------------------|--------------------|
|-21------------------------21-|-(21)---------------|
|-----------20-(20)-22-(22)----|--------------------|
|-18------------------------18-|-(18)---------------|
|-----------18-(18)-20-(20)----|--------------------|
|------------------------------|--------------------|

[ Tab from: http://www.guitartabs.cc/tabs/c/children_of_bodom/downfall_tab_ver_3.html ]
   E  E S S  E   E   E   E   E     E  E E E E E E E
|------------------------------|--------------------|
|------------------------------|------3-1-3-4-3-1-3-|
|------------------------------|--------------------|
|--5---------6-------3-------5-|--------------------|
|--5---------6-------3-------5-|--------------------|
|--5----5-5--6-------3-------5-|--------------------|
|
|  E  E S S  E   E   E   E   E     E  E E E E E E E
|------------------------------|--------------------|
|------------------------------|--------------------|
|------------------------------|--------------------|
|--5---------6-------3-------5-|------5-3-5-6-5-3-5-|
|--5---------6-------3-------5-|--------------------|
|--5----5-5--6-------3-------5-|--------------------|
|
|  Q.        E  +E   E  +E   E    +E  E Q   H
|------------------------------|--------------------|
|-20--------21-(21)------------|--------------------|
|-------------------22-(22)-24-|-(24)---------------|
|-17--------18-(18)------------|--------------------|
|-------------------20-(20)-22-|-(22)---------------|
|------------------------------|--------------------|


   E  E S S  E   E   E   E   E     E  E E E E E E E
|------------------------------|--------------------|
|------------------------------|------4-3-4-6-4-3-4-|
|------------------------------|--------------------|
|--6---------1-------3-------6-|--------------------|
|--6---------1-------3-------6-|--------------------|
|--6----1-1--1-------3-------6-|--------------------|
|
|  E  E S S  E   E   E   E   E     E  E E E E E E E
|------------------------------|--------------------|
|------------------------------|--------------------|
|------------------------------|--------------------|
|--6---------1-------3-------6-|------6-5-6-8-6-5-6-|
|--6---------1-------3-------6-|--------------------|
|--6----1-1--1-------3-------6-|--------------------|
|
|  Q.        E  +E   E  +E   E    +E  E Q   H
|------------------------------|--------------------|
|-21------------------------21-|-(21)---------------|
|-----------20-(20)-22-(22)----|--------------------|
|-18------------------------18-|-(18)---------------|
|-----------18-(18)-20-(20)----|--------------------|
|------------------------------|--------------------|


   E E E E E E E E   E E E E E  E   E   E
|------------------|-----------------------|
|------------------|-----------------------|
|--3-------2-------|-----------------------|
|--------3-------3-|-5---3-5--------3---5--|
|------5-------5---|---5--------5----------|
|----5-------5-----|---------5-------------|
|
|  E E Q   H         H       E  E   E   E
|------------------|-----------------------|
|------------------|-----------------------|
|------------------|-----------------------|
|--5---------------|------------3-------5--|
|--5---------------|------------3-------5--|
|--5---------------|------------3-------5--|
|
|  W                 H       E  E  +E   E
|------------------|-----------------------|
|-20---------------|-----------18-(18)-20--|
|------------------|-----------------------|
|-17---------------|-----------15-(15)-17--|
|------------------|-----------------------|
|------------------|-----------------------|


    E  E E E E E E E   E E E E E E E E   E E E E E E E E    E  E E E E E E E
|--------------------|-----------------|-----------------|-------------------|
|--------------------|-----------------|-----------------|-------------------|
|---3--------2-------|-----------------|-3-------2-------|-------------------|
|----------3-------3-|-5---3-5-----3-5-|-------3-------3-|--5----3-5-----3-5-|
|--------5-------5---|---5-------5-----|-----5-------5---|-----5-------5-----|
|------5-------5-----|---------5-------|---5-------5-----|-----------5-------|
|
| Gtr III                                Gtr II
|  +W                  W                 W                 +W
|--------------------|-----------------|-----------------|-------------------|
|-(20)---------------|-----------------|-----------------|-------------------|
|--------------------|-----------------|-----------------|-------------------|
|-(17)---------------|-----------------|-1---------------|-(1)---------------|
|--------------------|-----------------|-1---------------|-(1)---------------|
|--------------------|-----------------|-1---------------|-(1)---------------|


  E E E E E E E E   E E Q  E E Q    W          W
|-----------------|---------------|----------|------|
|-----------------|---------------|----------|------|
|-3-------2-------|---------------|----------|------|
|-------3-------3-|-5------3-1----|-0--------|-1----|
|-----5-------5---|--------3-1----|-0--------|-1----|
|---5-------5-----|--------3-1----|-0--------|-1----|
|
| E E Q   H         H      E E Q    W          W
|-----------------|---------------|----------|------|
|-----------------|---------------|----------|------|
|-----------------|---------------|----------|------|
|-1-1-------------|--------3-1----|-0--------|-1----|
|-1-1-------------|--------3-1----|-0--------|-1----|
|-1-1-------------|--------3-1----|-0--------|-1----|


  W          W          W             W
|----------|----------|-------------|--------------|
|----------|----------|-------------|--------------|
|----------|----------|-------------|--------------|
|-5--------|-8--------|-1-----------|-5------------|
|-5--------|-8--------|-1-----------|-5------------|
|-5--------|-8--------|-1-----------|-5------------|
|
| W          W          Q  Q  Q  Q    Q  Q  Q   Q
|----------|----------|-------------|--------------|
|----------|----------|-------------|--------------|
|----------|----------|-------------|--------------|
|-5--------|-8--------|-------------|--------------|
|-5--------|-8--------|-------------|--------------|
|-5--------|-8--------|-1--0--1--3--|-5--7--8--10--|


   W               W
|---------------|-----------|
|---------------|-----------|
|---------------|--7--------|
|--8------------|--7--------|
|--8------------|--5--------|
|--8------------|-----------|
|
|  H     Q   Q     W
|---------------|-----------|
|---------------|-----------|
|---------------|-----------|
|---------------|-----------|
|---------------|-----------|
|-12----15--17--|-19--------|


   E  E  E  E  E  E  E  E    E  E  E  E  E  E  E  E
|-------------------------|-------------------------|
|-------------------------|-------------------------|
|--7--7--7--7--7--7--7--7-|--8--8--8--8--8--8--8--8-|
|-------------------------|-------------------------|
|--5--5--5--5--5--5--5--5-|--6--6--6--6--6--6--6--6-|
|-------------------------|-------------------------|
|
|  E  E  E  E  E  E  E  E    E  E  E  E  E  E  E  E
|-------------------------|-------------------------|
|-------------------------|-------------------------|
|-------------------------|-------------------------|
|-------------------------|-17-17-17-17-17-17-17-17-|
|-20-20-20-20-20-20-20-20-|-18-18-18-18-18-18-18-18-|
|-24-24-24-24-24-24-24-24-|-------------------------|


   E  E  E  E  E  E  E  E    E  E  E  E  E  E  E  E
|-------------------------|-------------------------|
|--8--8--8--8--8--8--8--8-|-11-11-11-11-11-11-11-11-|
|--0--0--0--0--0--0--0--0-|-------------------------|
|-------------------------|--8--8--8--8--8--8--8--8-|
|-------------------------|-------------------------|
|-------------------------|-------------------------|
|
|  E  E  E  E  E  E  E  E    E  E  E  E  E  E  E  E
|-------------------------|-------------------------|
|-------------------------|-------------------------|
|-------------------------|-------------------------|
|-------------------------|-15-15-15-15-15-15-15-15-|
|-17-17-17-17-17-17-17-17-|-17-17-17-17-17-17-17-17-|
|-20-20-20-20-20-20-20-20-|-------------------------|


   E  E  E  E  E  E  E  E    E  E  E  E  E  E  E  E
|-------------------------|-------------------------|
|-------------------------|--8--8--8--8--8--8--8--8-|
|--8--8--8--8--8--8--8--8-|--0--0--0--0--0--0--0--0-|
|-------------------------|-------------------------|
|--6--6--6--6--6--6--6--6-|-------------------------|
|-------------------------|-------------------------|
|
|  E  E  E  E  E  E  E  E    E  E  E  E  E  E  E  E
|-------------------------|-------------------------|
|-------------------------|-------------------------|
|-------------------------|-------------------------|
|-17-17-17-17-17-17-17-17-|-------------------------|
|-18-18-18-18-18-18-18-18-|-17-17-17-17-17-17-17-17-|
|-------------------------|-20-20-20-20-20-20-20-20-|


   E  E  E  E  E  E  E  E    E  E  E  E  E  E  E  E
|-------------------------|-10-10-10-10-10-10-10-10-|
|-11-11-11-11-11-11-11-11-|-------------------------|
|-------------------------|--7--7--7--7--7--7--7--7-|
|--8--8--8--8--8--8--8--8-|-------------------------|
|-------------------------|-------------------------|
|-------------------------|-------------------------|
|
|  E  E  E  E  E  E  E  E    E  E  E  E  E  E  E  E
|-------------------------|-------------------------|
|-------------------------|-------------------------|
|-------------------------|-------------------------|
|-15-15-15-15-15-15-15-15-|-15-15-15-15-15-15-15-15-|
|-17-17-17-17-17-17-17-17-|-17-17-17-17-17-17-17-17-|
|-------------------------|-------------------------|


   E  E  E  E  E  E  E  E    E  E  E  E  E  E  E  E
|-------------------------|-------------------------|
|-------------------------|-------------------------|
|--7--7--7--7--7--7--7--7-|--8--8--8--8--8--8--8--8-|
|--0--0--0--0--0--0--0--0-|-------------------------|
|-------------------------|--6--6--6--6--6--6--6--6-|
|-------------------------|-------------------------|
|
|  E  E  E  E  E  E  E  E    E  E  E  E  E  E  E  E
|-------------------------|-------------------------|
|-------------------------|-------------------------|
|-------------------------|-------------------------|
|-15-15-15-15-15-15-15-15-|-17-17-17-17-17-17-17-17-|
|-17-17-17-17-17-17-17-17-|-18-18-18-18-18-18-18-18-|
|-------------------------|-------------------------|


   E  E  E  E  E  E  E  E    E  E  E  E  E  E  E  E
|-------------------------|-------------------------|
|--8--8--8--8--8--8--8--8-|-11-11-11-11-11-11-11-11-|
|--0--0--0--0--0--0--0--0-|-------------------------|
|-------------------------|--8--8--8--8--8--8--8--8-|
|-------------------------|-------------------------|
|-------------------------|-------------------------|
|
|  E  E  E  E  E  E  E  E    E  E  E  E  E  E  E  E
|-------------------------|-------------------------|
|-------------------------|-------------------------|
|-------------------------|-------------------------|
|-------------------------|-15-15-15-15-15-15-15-15-|
|-17-17-17-17-17-17-17-17-|-17-17-17-17-17-17-17-17-|
|-20-20-20-20-20-20-20-20-|-------------------------|


   E  E  E  E  E  E  E  E    E  E  E  E  E  E  E  E
|-------------------------|-------------------------|
|-------------------------|--8--8--8--8--8--8--8--8-|
|--8--8--8--8--8--8--8--8-|--0--0--0--0--0--0--0--0-|
|-------------------------|-------------------------|
|--6--6--6--6--6--6--6--6-|-------------------------|
|-------------------------|-------------------------|
|
|  E  E  E  E  E  E  E  E    E  E  E  E  E  E  E  E
|-------------------------|-------------------------|
|-------------------------|-------------------------|
|-------------------------|-------------------------|
|-17-17-17-17-17-17-17-17-|-------------------------|
|-18-18-18-18-18-18-18-18-|-17-17-17-17-17-17-17-17-|
|-------------------------|-20-20-20-20-20-20-20-20-|


   E  E  E  E  E  E  E  E    E  E  E  E  E  E  E  E   W          W
|-------------------------|-10-10-10-10-10-10-10-10-|----------|------|
|-11-11-11-11-11-11-11-11-|-------------------------|----------|------|
|-------------------------|--7--7--7--7--7--7--7--7-|----------|------|
|--8--8--8--8--8--8--8--8-|-------------------------|----------|------|
|-------------------------|-------------------------|----------|------|
|-------------------------|-------------------------|----------|------|
|
|  E  E  E  E  E  E  E  E    E  E  E  E  E  E  E  E   W          W
|-------------------------|-------------------------|----------|------|
|-------------------------|-------------------------|----------|------|
|-------------------------|-------------------------|----------|------|
|-15-15-15-15-15-15-15-15-|-15-15-15-15-15-15-15-15-|----------|------|
|-17-17-17-17-17-17-17-17-|-17-17-17-17-17-17-17-17-|----------|------|
|-------------------------|-------------------------|----------|------|


  H    Q  E  E    W           W           +H.      E E
|--------------|-----------|-----------|---------------|
|--------------|-----------|--1--------|--(1)----------|
|--------------|-----------|--0--------|--(0)----------|
|------------1-|--1--------|-----------|---------------|
|------------1-|--1--------|--3--------|--(3)----------|
|------------1-|--1--------|-----------|-----------3-3-|
|
| H    Q  E  E    W           W           +H.      E E
|--------------|-----------|-----------|---------------|
|--------------|-----------|-----------|---------------|
|--------------|-----------|-----------|---------------|
|-----------13-|-13--------|-10--------|-(10)----------|
|-----------13-|-13--------|-10--------|-(10)----------|
|-----------13-|-13--------|-10--------|-(10)------3-3-|


  H    H      +Q   E E Q  E E   W          +W
|-----------|-----------------|----------|--------|
|-----------|-----------------|----------|--------|
|-3---------|----------5------|-5--------|-(5)----|
|-3----3----|-(3)------3------|-5--------|-(5)----|
|-1----3----|-(3)--3-3-3--3-3-|-3--------|-(3)----|
|------3----|-(3)-------------|----------|--------|
|
| H    H      +Q   E E Q  E E   W          +W
|-----------|-----------------|----------|--------|
|-----------|-----------------|----------|--------|
|-3---------|-----------------|-5--------|-(5)----|
|-3----3----|-(3)------3------|-5--------|-(5)----|
|-1----3----|-(3)------3------|-3--------|-(3)----|
|------3----|-(3)--3-3-3--3-3-|----------|--------|


  E E +Q   H      +Q   E E Q  E   E
|---------------|---------------------|
|---3-(3)-------|---------------------|
|---2-(2)-------|---------------------|
|---0-(0)--3----|-(3)------3----------|
|----------3----|-(3)------3----------|
|----------3----|-(3)--3-3-3--3---3---|
|
| E E +Q   H      +H       Q  S S S S
|---------------|---------------------|
|---3-(3)-------|---------------------|
|---2-(2)-------|---------------------|
|---0-(0)--3----|-(3)-----------------|
|----------3----|-(3)------1--0-------|
|----------3----|-(3)-----------5-3-1-|
|
| Gtr IV
| W                W
|---------------|---------------------|
|---------------|---------------------|
|---------------|---------------------|
|---------------|---------------------|
|---------------|---------------------|
|---------------|---------------------|


   W                        +W
|-------------------------|--------------------------|
|-------------------------|--------------------------|
|-------------------------|--------------------------|
|--5----------------------|-(5)----------------------|
|--5----------------------|-(5)----------------------|
|--5----------------------|-(5)----------------------|
|
|  W                        +H            H
|-------------------------|--------------------------|
|-------------------------|--------------------------|
|-------------------------|--------------------------|
|--5----------------------|-(5)----------------------|
|--5----------------------|-(5)----------------------|
|--5----------------------|-(5)----------------------|
|
|  E  E  E  E  E  E  E  E    E   E  E  E  E  E  E  E
|-15----------15----------|-15-----------15----------|
|----15----------15-------|-----15----------15-------|
|-------------------------|--------------------------|
|-------17----------17----|--------17----------17----|
|----------17----------17-|-----------17----------17-|
|-------------------------|--------------------------|


  Gtr II
   W                         H           Q     E  S S
|-------------------------|---------------------------|
|-------------------------|---------------------------|
|-------------------------|---------------------------|
|-------------------------|-------------------------1-|
|-------------------------|-------------------------5-|
|-------------------------|--------------------8-10---|
|
| Gtr IV
|  E  E  E  E  E  E  E  E    E  E  E  E  E  E  E  E
|-15----------15----------|-15----------15------------|
|----15----------15-------|----15----------15---------|
|-------------------------|---------------------------|
|-------17----------17----|-------17----------17------|
|----------17----------17-|----------17----------17---|
|-------------------------|---------------------------|


   H           H             E  E  S E    S +S  E    S  E  E
|-------------------------|-----------------------------------|
|-------------------------|-----------------------------------|
|-------------------------|-----------------------------------|
|--3----------------------|--2--1--0--------------------------|
|--7----------------------|----------4----3-(3)-2----1--0-----|
|-------------------------|--------------------------------6--|
|
|  E  E  E  E  E  E  E  E    E  E  E    E    E     E    E  E
|-15----------15----------|-15--------------15----------------|
|----15----------15-------|----15-----------------15----------|
|-------------------------|-----------------------------------|
|-------17----------17----|-------17-------------------17-----|
|----------17----------17-|------------17-----------------17--|
|-------------------------|-----------------------------------|


  Gtr I
   H           Q     S S  S  S
|------------------------------|
|------------------------------|
|----------------------------0-|
|-------------------------0--4-|
|----------------------1--4----|
|--------------0-----3---------|
|
| Gtr II
|  H           Q     S S  S  S
|----------------------4--8-12-|
|--------------------5-8-12-16-|
|--------------7-----8---------|
|------------------------------|
|------------------------------|
|------------------------------|
|
| Gtr IV
|  E  E  E  E  E  E  E    E
|-15----------15---------------|
|----15----------15------------|
|------------------------------|
|-------17----------17---------|
|----------17------------17----|
|------------------------------|


   Q      Q     S S  S S  S S  S S    Q   E  E  +E  E  Q
|----------------------------------|----------------------|
|----------------------------------|--3------3--(3)----3--|
|--3------------2-0----------------|--2------2--(2)----2--|
|--7------------6-4--3-0-----------|--0---0--0--(0)-0--0--|
|--------------------7-4--2--------|----------------------|
|---------------------------6--4-2-|--1-------------------|
|
|  Q.        E  H                     Q.     E  +Q     Q
|-15-------------------------------|----------------------|
|-19-------------------------------|-15-----17-(17)---18--|
|----------------------------------|----------------------|
|----------------------------------|----------------------|
|----------------------------------|----------------------|
|----------------------------------|----------------------|
|
|                                    Gtr V
|  E   E  E  E  E    E    E    E      Q.     E  +Q     Q
|-15-----------15------------------|-13-----15-(15)---17--|
|-----15------------15-------------|----------------------|
|----------------------------------|----------------------|
|--------17--------------17--------|----------------------|
|-----------17----------------17---|----------------------|
|----------------------------------|----------------------|


   Q   E  E +E  E  Q     Q  E E +E      E     Q
|---------------------|----------------------------------|
|---------1-(1)-------|--3----3-(3)-----------3----------|
|--3------0-(0)----5--|--2----2-(2)-----------2----------|
|--3---------------5--|--0--0-0-(0)-----0-----0----------|
|--1---1--3-(3)-3--3--|----------------------------------|
|---------------------|----------------------------------|
|
|  Q.     E  Q     Q     H       S   S  S  S  S  S  S  S
|---------------------|----------------------------------|
|-20-----18-18----17--|-15------15--17-18-20-22-23-22-20-|
|---------------------|----------------------------------|
|---------------------|----------------------------------|
|---------------------|----------------------------------|
|---------------------|----------------------------------|
|
|  Q.     E  Q     Q     H       S   S  S  S  S  S  S  S
|-18-----17-17----15--|-13------13--15-17-18-20-22-20-18-|
|---------------------|----------------------------------|
|---------------------|----------------------------------|
|---------------------|----------------------------------|
|---------------------|----------------------------------|
|---------------------|----------------------------------|


   Q           E     E    +E      E     Q
|---------------------------------------------------|
|--------------------1----(1)-----------------------|
|--3-----------------0----(0)-----------5-----------|
|--3------------------------------------5-----------|
|--1-----------1-----3----(3)-----3-----3-----------|
|---------------------------------------------------|
|
|  S  S  S  S  S  S  S  S  S   S  S  S  S  S  S  S
|--------------------------------20-18-17-15-13-12--|
|-22-20-18-17-15-17-18-20-22--23--------------------|
|---------------------------------------------------|
|---------------------------------------------------|
|---------------------------------------------------|
|---------------------------------------------------|
|
|  S  S  S  S  S  S  S  S  S   S  S  S  S  S  S  S
|-20-18-17-15-13-15-17-18-20--22-22-22-20-18-17-15--|
|---------------------------------------------------|
|---------------------------------------------------|
|---------------------------------------------------|
|---------------------------------------------------|
|---------------------------------------------------|


   Q   E  E  +E  E  Q
|----------------------|
|--3------3--(3)----3--|
|--2------2--(2)----2--|
|--0---0--0--(0)-0--0--|
|----------------------|
|----------------------|
|
|  Q.     E  +Q     Q
|-10-----12-(12)---13--|
|----------------------|
|----------------------|
|----------------------|
|----------------------|
|----------------------|
|
|  Q.     E  +Q     Q
|-13-----15-(15)---17--|
|----------------------|
|----------------------|
|----------------------|
|----------------------|
|----------------------|


   Q           Q           Q           Q            Q   E  E  +E  E  Q
|--------------------------3---------------------|-----------------------|
|--------------5-----------3-----------5---------|-----------------------|
|--6-----------4-----------0-----------4---------|--5------7--(7)----5---|
|--6-----------2-----------------------2---------|--5------7--(7)----5---|
|--4---------------------------------------------|--3---5--5--(5)-3--3---|
|------------------------------------------------|-----------------------|
|
|  S  S  S  S  S  S  S  S  S  S  S  S  S  S S  S    Q   E  E  +Q     Q
|-18---------------------------------------------|-----------------------|
|----20-18----20-------------18-------18---------|-17--18-----------17---|
|----------19----21-------19-------17----19------|--------19-(19)--------|
|-------------------23-20-------19------------19-|-----------------------|
|------------------------------------------------|-----------------------|
|------------------------------------------------|-----------------------|
|
|  S  S  S  S  S  S  S  S  S  S  S  S  S  S S  S    Q   E  E  +Q     Q
|-21---------------------------------------------|-----------------------|
|----23-21----23-------------22-------22---------|-----22-----------20---|
|----------22----24-21----22-------------22------|-24-----22-(22)--------|
|----------------------23----------22------------|-----------------------|
|-------------------------------24------------24-|-----------------------|
|------------------------------------------------|-----------------------|


   E  E  +Q    Q   Q     Q   E  E  +E  E  Q     Q   E  E +E  E  Q
|---------------------|----------------------|---------------------|
|---------------------|--3------3--(3)----3--|---------1-(1)-------|
|-----7--(7)---5---3--|--2------2--(2)----2--|--3------0-(0)----5--|
|-----7--(7)---5---3--|--0---0--0--(0)-0--0--|--3---------------5--|
|--5--5--(5)---3---1--|----------------------|--1---1--3-(3)-3--3--|
|---------------------|----------------------|---------------------|
|
|  E  E  +Q    Q   Q     Q.     E  +Q     Q     Q.     E  Q     Q
|---------------------|----------------------|---------------------|
|-18------------------|-15-----17-(17)---18--|-20-----18-18--------|
|----19-(19)----------|----------------------|---------------------|
|-------------17--15--|----------------------|-----------------20--|
|---------------------|----------------------|---------------------|
|---------------------|----------------------|---------------------|
|
|  E  E  +Q    Q   Q     Q.     E  +Q     Q     Q.     E  Q     Q
|-------------22--20--|----------------------|---------------------|
|-22------------------|-18-----20-(20)---22--|-23-----22-22----20--|
|----22-(22)----------|----------------------|---------------------|
|---------------------|----------------------|---------------------|
|---------------------|----------------------|---------------------|
|---------------------|----------------------|---------------------|


   Q           Q           Q           Q
|-------------------------------------------------|
|--------------1-----------3-----------5----------|
|--3-----------0-----------2-----------4----------|
|--3-----------------------0-----------2----------|
|--1-----------3----------------------------------|
|-------------------------------------------------|
|
|  S  S  S  S  S  S  S  S  S  S  S  S  S  S  S  S
|-------------------------------------------------|
|----------------------------------20-------20-22-|
|----------21-------21-22----21-22----21-22-------|
|-20-22-24----22-24-------24----------------------|
|-------------------------------------------------|
|-------------------------------------------------|
|
|  S  S  S  S  S  S  S  S  S  S  S  S  S  S  S  S
|----------------------------------------------20-|
|----17-18-20-------20-22----20-22-23----22-23----|
|-19----------21-22-------22----------24----------|
|-------------------------------------------------|
|-------------------------------------------------|
|-------------------------------------------------|


   Q           Q           E     E     E     E
|--------------3-----------5-----------------5----|
|--6-----------3-----------5-----------------5----|
|--5-----------0-----------2-----------------2----|
|--3----------------------------------------------|
|-------------------------------------------------|
|-------------------------------------------------|
|
|  S  S  S  S  S  S  S  S  S  S  S  S  S  S  S  S
|-------------------------------------------------|
|----20-22-23----22-23-22-20-22-20-22-23-22-20-22-|
|-22----------24----------------------------------|
|-------------------------------------------------|
|-------------------------------------------------|
|-------------------------------------------------|
|
|  S  S  S  S  S  S  S  S  H
|-------20-22----20-21-22-21----------------------|
|-22-23-------23----------------------------------|
|-------------------------------------------------|
|-------------------------------------------------|
|-------------------------------------------------|
|-------------------------------------------------|


    H                        E     E     E     E
|----------------------------5-----------------5----|
|----------------------------5-----------------5----|
|----------------------------2-----------------2----|
|---------------------------------------------------|
|---------------------------------------------------|
|---------------------------------------------------|
|
|   S   S  S  S  S  S  S  S  S  S  S  S  S  S  S  S
|---------------------------------------------------|
|--20--22-23-22-20-22-20-22-23-22-20-22-20-22-23-22-|
|---------------------------------------------------|
|---------------------------------------------------|
|---------------------------------------------------|
|---------------------------------------------------|
|
|  +Q            S  S  S  S  S  S  S  S  S  S  S  S
|-(21)----------20-19-17-15-13-11--9--8--6--4--2--0-|
|------------------23-21-19-17-15----12-10--8--6--4-|
|---------------------------------------------------|
|---------------------------------------------------|
|---------------------------------------------------|
|---------------------------------------------------|


   H                      Q           Q
|------------------------------------------------|
|------------------------------------------------|
|------------------------------------------------|
|------------------------------------------------|
|-------------------------1-----------0----------|
|------------------------------------------------|
|
|  S  S  S  S  +E   S  S  S  S  S  S  S  S  S  S
|------------------19-21-22-20-18-17-20-18-17-15-|
|-20-22-23-22-(22)-23----------------------------|
|------------------------------------------------|
|------------------------------------------------|
|------------------------------------------------|
|------------------------------------------------|
|
|  W
|------------------------------------------------|
|------------------------------------------------|
|------------------------------------------------|
|------------------------------------------------|
|------------------------------------------------|
|------------------------------------------------|


   Q           Q           E     E     E     E
|------------------------------------------------|
|------------------------------------------------|
|------------------------------------------------|
|--------------------------3-----2-----0---------|
|--------------------------3-----2-----0-----3---|
|--5-----------3-----------------------------5---|
|
|  S  S  S  S  S  S  S  S  S  S  S  S  S  S  S S
|-18-17-15-13-17-15-13-12-15-13-12-10-13-12-10-9-|
|------------------------------------------------|
|------------------------------------------------|
|------------------------------------------------|
|------------------------------------------------|
|------------------------------------------------|
|
|  W
|------------------------------------------------|
|------------------------------------------------|
|------------------------------------------------|
|------------------------------------------------|
|------------------------------------------------|
|------------------------------------------------|


   E E E E  E  E  Q       Q     E  E  E  E  Q
|----------------------|--------------------------|
|-----------3----------|--------3-----------------|
|------5----2----------|--------2-----------------|
|--0---5----0----------|--------0-----5-----------|
|--0---3---------------|--------------5-----------|
|----------------------|--------------5-----------|
|
|  E E E E  E  E  E  E    E  E  E  E  E  E  E  E
|-10---9---10-13-13----|----------------18-18-----|
|-------------------15-|-15-------------------20--|
|----------------------|----14-14----15-----------|
|----------------------|----------15--------------|
|----------------------|--------------------------|
|----------------------|--------------------------|
|
|  H        E  E  E  E    E  E  E  E  E  E  E  E
|----------13-17-17----|----------------22-22-----|
|-------------------18-|-18-------------------23--|
|----------------------|----19-19----19-----------|
|----------------------|----------19--------------|
|----------------------|--------------------------|
|----------------------|--------------------------|


   H           Q     Q       Q     Q     E  E  E  E
|-------------------------|-------------------------|
|-------------------------|-------------------------|
|-------------------------|-------------------------|
|-------------------------|-------------------------|
|-------------------------|--------4-----5--7--8-10-|
|--------------5-----6----|--7----------------------|
|
|  E  E  E  E  E  E  E  E    E  E  E  E  E  E  E  E
|----------------------17-|-15-13-12-15-13-12-13-15-|
|-20----------22-20-18----|-------------------------|
|----19-19----------------|-------------------------|
|----------20-------------|-------------------------|
|-------------------------|-------------------------|
|-------------------------|-------------------------|
|
|  E  E  E  E  E  E  E  E    E  E  E  E  E  E  E  E
|-------------------------|----------12-10--9-13-15-|
|-23-------------------18-|-17-15-14----------------|
|----24-24----22-21-19----|-------------------------|
|----------24-------------|-------------------------|
|-------------------------|-------------------------|
|-------------------------|-------------------------|


   Q   E E  E  E  Q       Q     E  E  E  E  Q
|----------------------|-------------------------|
|----------------------|-------------------------|
|----------------------|-------------------------|
|-----10---12----------|-------12-----5----------|
|-12--10---12----------|-------12-----5----------|
|-----10---12----------|-------12-----5----------|
|
|  H        E  E  E  E    E  E  E  E  E  E  E  E
|-17----------13-13----|----------------18-18----|
|----------15-------15-|-15-------------------20-|
|----------------------|----14-14----15----------|
|----------------------|----------15-------------|
|----------------------|-------------------------|
|----------------------|-------------------------|
|
|  H        E  E  E  E    E  E  E  E  E  E  E  E
|-17----------17-17----|----------------22-22----|
|----------18-------18-|-18-------------------23-|
|----------------------|----19-19----19----------|
|----------------------|----------19-------------|
|----------------------|-------------------------|
|----------------------|-------------------------|


   H           E     E     Q
|-------------------------------------|
|-------------------------------------|
|-------------------------------------|
|--------------7----------------------|
|--------------7----------------------|
|--------------7----------------------|
|
|  E  E  E  E  S  S  S  S  S  S  S  S
|-------------------------------------|
|-20-------------17-18-20-22-23-22-20-|
|----19-19----19----------------------|
|----------20-------------------------|
|-------------------------------------|
|-------------------------------------|
|
|  E  E  E  E  H
|-------------------------------------|
|-23----------------------------------|
|----24-24----------------------------|
|----------24-------------------------|
|-------------------------------------|
|-------------------------------------|


                                2/4      4/4
   H                    Q  E E   E E Q     E  E  Q     H
|------------------------------|--------|-------------------------|
|------------------------------|--------|-------------------------|
|------------------------------|-7------|-------------------------|
|--------------------------7---|-7------|--5----------------------|
|--------------------------7---|-5------|--5----------------------|
|--------------------------7---|--------|--5----------------------|
|
|  S  S  S  S  S  S S S Q  E E   E E Q     E  E  Q     H
|------------------------------|--------|-------------------------|
|-18-17-15-13-11-10-8-6----5---|-6------|-------------------------|
|------------------------------|--------|-------------------------|
|------------------------------|--------|--5----------------------|
|------------------------------|--------|--5----------------------|
|------------------------------|--------|--5----------------------|
|
|                                         Gtr IV
|  W                             W         E  E  E  E  E  E  E  E
|------------------------------|--------|-------------------------|
|------------------------------|--------|----15-13-15----15-------|
|------------------------------|--------|-------------15----14-15-|
|------------------------------|--------|-------------------------|
|------------------------------|--------|-17----------------------|
|------------------------------|--------|-------------------------|


   W                         W
|-------------------------|-------------------------|
|-------------------------|-------------------------|
|-------------------------|-------------------------|
|-------------------------|-------------------------|
|-------------------------|-------------------------|
|-------------------------|-------------------------|
|
|  W                         W
|-------------------------|-------------------------|
|-------------------------|-------------------------|
|-------------------------|-------------------------|
|-------------------------|-------------------------|
|-------------------------|-------------------------|
|-------------------------|-------------------------|
|
|  E  E  E  E  E  E  E  E    E  E  E  E  E  E  E  E
|----13-12-13----13----13-|-------------------------|
|-------------14----13----|----13-11-13----13-------|
|-------------------------|-------------13----12-13-|
|-15----------------------|-------------------------|
|-------------------------|-15----------------------|
|-------------------------|-------------------------|


   S S  E  E.     S  S S  E    S S  S S    H.                Q
|---------------------------------------|-------------------------|
|---------------------------------------|-------------------------|
|---------------------------------------|-------------------------|
|----------------------1--3------2------|--5----------------------|
|--------------------2-5--7------6--3-0-|--5----------------------|
|--0-------3------5---------------------|--5----------------------|
|
|  S S  E  E.     S  S S  S S  S S  S S    H.                Q
|---------------------------------------|-------------------------|
|-------------------------2------1------|-------------------------|
|----------------------3--6------4--2---|-------------------------|
|--------------------3-7------------6-3-|--5----------------------|
|--------------------7----------------7-|--5----------------------|
|--0-------8-----11---------------------|--5----------------------|
|
|  E    E  E   E     E    E    E    E      E   E E  E  E  E  E  E
|------11-10--11---------11--------10---|-----10-8-10----10-------|
|-------------------13--------11--------|-------------11----10-11-|
|-12------------------------------------|-------------------------|
|---------------------------------------|-12----------------------|
|---------------------------------------|-------------------------|
|---------------------------------------|-------------------------|


  Gtrs I, II
   W                         W
|-------------------------|-------------------------|
|-------------------------|-------------------------|
|-------------------------|-------------------------|
|--8----------------------|--3----------------------|
|--8----------------------|--3----------------------|
|--8----------------------|--3----------------------|
|
| Gtr IV
|  E  E  E  E  E  E  E  E    E  E  E  E  E  E  E  E
|----13-12-13----13----13-|-------------------------|
|-------------14----13----|----13-11-13----13-------|
|-10----------------------|-------------13----12-13-|
|-------------------------|-------------------------|
|-------------------------|-15----------------------|
|-------------------------|-------------------------|


   W                         W
|-------------------------|------------------------|
|-------------------------|------------------------|
|--5----------------------|------------------------|
|--5----------------------|--5---------------------|
|--3----------------------|--5---------------------|
|-------------------------|--5---------------------|
|
|  E  E  E  E  E  E  E  E    E  E E  E  E  E  E  E
|----11-10-11----11----10-|----10-8-10----10-------|
|-------------13----11----|------------11----10-11-|
|-12----------------------|------------------------|
|-------------------------|-12---------------------|
|-------------------------|------------------------|
|-------------------------|------------------------|


  Gtr I
   W                         W
|-------------------------|-------------------------|
|-------------------------|-------------------------|
|-------------------------|-------------------------|
|--8----------------------|--3----------------------|
|--8----------------------|--3----------------------|
|--8----------------------|--3----------------------|
|
| Gtr II
|  W                         W
|-------------------------|-------------------------|
|-------------------------|-------------------------|
|-------------------------|-------------------------|
|--8----------------------|--3----------------------|
|--8----------------------|--3----------------------|
|--8----------------------|--3----------------------|
|
| Gtr IV
|  E  E  E  E  E  E  E  E    E  E  E  E  E  E  E  E
|----13-12-13----13----13-|-------------------------|
|-------------14----13----|----13-11-13----13-------|
|-10----------------------|-------------13----12-13-|
|-------------------------|-------------------------|
|-------------------------|-15----------------------|
|-------------------------|-------------------------|


   W                        E  E  E  E  +E   E  E  E
|-------------------------|--------------------------|
|-------------------------|--------------------------|
|--5----------------------|--------------------------|
|--5----------------------|-5-----5--3--(3)-----3--5-|
|--3----------------------|-5-----5--3--(3)-----3--5-|
|-------------------------|-5--5--5--3--(3)--3--3--5-|
|
|  W                        E  E  E  E  +E   E  E  E
|-------------------------|--------------------------|
|-------------------------|--------------------------|
|--5----------------------|--------------------------|
|--5----------------------|-5--7--8-10-(10)--8-10-12-|
|--3----------------------|--------------------------|
|-------------------------|--------------------------|
|
|  E  E  E  E  E  E  E  E   E  E  E  E  +E   E  E  E
|----11-10-11----11----10-|--------------------------|
|-------------13----11----|-8-10-11-13-(13)-11-13-15-|
|-12----------------------|--------------------------|
|-------------------------|--------------------------|
|-------------------------|--------------------------|
|-------------------------|--------------------------|


   +E   E  E  E  +E   E  E E    W
|----------------------------|--------------|
|----------------------------|--------------|
|----------------------------|--------------|
|--(5)-----5--3--(3)-----3---|--1-----------|
|--(5)-----5--3--(3)-----3---|--1-----------|
|--(5)--5--5--3--(3)--3--3-1-|--1-----------|
|
|  +E   E  E  E  +E   E  Q      H.       Q
|----------------------------|--------------|
|----------------------------|--8-------10--|
|------------10-(10)----10---|--8-------10--|
|-(12)-10-12---------12------|--------------|
|----------------------------|--------------|
|----------------------------|--------------|
|
|  +E   E  E  E  +E   E  Q      W
|------------13-(13)----13---|-15-----------|
|-(15)-13-15---------15------|--------------|
|----------------------------|--------------|
|----------------------------|--------------|
|----------------------------|--------------|
|----------------------------|--------------|


   S  S S S S S E S S S S  S S  E
|------------------------------------|
|------------------------------------|
|------------------------------------|
|------------------------------------|
|------------------------------------|
|--1--1-1-1-1-----1-1-1-1--1---------|
|
|  H.                      E    S  S
|----------------------------------9-|
|-11----------------------11-------0-|
|-12----------------------12----9--5-|
|------------------------------13--8-|
|---------------------------------12-|
|------------------------------------|
|
|  W
|------------------------------------|
|------------------------------------|
|------------------------------------|
|------------------------------------|
|------------------------------------|
|------------------------------------|


   H             H         H           H
|-----------------------|---------------------|
|-----------------------|---------------------|
|-----------------------|---------------------|
|--5-------------0------|--5-----------0------|
|--5-------------0------|--5-----------0------|
|--5-------------0------|--5-----------0------|
|
|  S S  E  E  E  Q   Q     E  E  E  E  Q   Q
|------10-15-18-17------|-18-------18-17------|
|-23----------------18--|-------20--------18--|
|--0--------------------|----19---------------|
|--4--------------------|---------------------|
|--8--------------------|---------------------|
|-18--------------------|---------------------|


   H           H             H           H
|-------------------------|----------------------|
|-------------------------|----------------------|
|-------------------------|----------------------|
|--1-----------3----------|--5-----------0-------|
|--1-----------3----------|--5-----------0-------|
|--1-----------3----------|--5-----------0-------|
|
|  E  E  E  E  E  E  E  E    E  E  E  E  Q   Q
|-------------------------|----------------------|
|-20-------20-22-------22-|-23-------23-22-------|
|-------20----------22----|-------24--------22---|
|----20----------22-------|----24----------------|
|-------------------------|----------------------|
|-------------------------|----------------------|


   H           H         H           H
|---------------------|---------------------|
|---------------------|---------------------|
|---------------------|---------------------|
|--5-----------0------|--5-----------0------|
|--5-----------0------|--5-----------0------|
|--5-----------0------|--5-----------0------|
|
|  E  E  E  E  Q   Q     E  E  E  E  Q   Q
|---------------------|---------------------|
|-23-------23-22------|-23-------23-22------|
|-------24--------22--|-------24--------22--|
|----24---------------|----24---------------|
|---------------------|---------------------|
|---------------------|---------------------|


   H           H             E  E  E  E  H
|-------------------------|---------------------|
|-------------------------|---------------------|
|-------------------------|---------------------|
|--1-----------3----------|--5------------------|
|--1-----------3----------|--5-----------8------|
|--1-----------3----------|--5--7--8-10---------|
|
|  E  E  E  E  E  E  E  E    E  E  E  E  Q   Q
|-------------------------|---------------------|
|-20-------20-22-------22-|-23-------23-22------|
|-------20----------22----|-------24--------22--|
|----20----------22-------|----24---------------|
|-------------------------|---------------------|
|-------------------------|---------------------|


   H           H         H           H
|---------------------|---------------------|
|---------------------|---------------------|
|---------------------|--2------------------|
|--7-----------2------|--2-----------2------|
|--7-----------2------|--0-----------2------|
|--7-----------2------|--------------2------|
|
|  E  E  E  E  Q   Q     E  E  E  E  Q   Q
|-20----17-20-19------|-20----17-20-19------|
|----------17-----20--|----------17-----20--|
|-21-21-17----19------|-21-21-17----19------|
|----19-----------21--|----19-----------21--|
|---------------------|---------------------|
|---------------------|---------------------|


   H           H             H           H
|-------------------------|---------------------|
|-------------------------|---------------------|
|-------------------------|---------------------|
|--3-----------5----------|--7-----------2------|
|--3-----------5----------|--7-----------2------|
|--3-----------5----------|--7-----------2------|
|
|  E  E  E  E  E  E  E  E    E  E  E  E  Q   Q
|----------17-19-------19-|-20----17-20-19------|
|-22----------------20-15-|-17-------17-----20--|
|-------22-17-19-19-16----|----21-17----19------|
|-22-22-19-------17-------|----19-----------21--|
|----20-------------------|---------------------|
|-------------------------|---------------------|


   H           H         H           H
|---------------------|---------------------|
|---------------------|---------------------|
|--2------------------|--2------------------|
|--2-----------2------|--2-----------2------|
|--0-----------2------|--0-----------2------|
|--------------2------|--------------2------|
|
|  E  E  E  E  Q   Q     E  E  E  E  Q   Q
|-20----17-20-19------|-20----17-20-19------|
|----------17-----20--|----------17-----20--|
|-21-21-17----19------|-21-21-17----19------|
|----19-----------21--|----19-----------21--|
|---------------------|---------------------|
|---------------------|---------------------|


   H           H             H           H
|-------------------------|---------------------|
|-------------------------|---------------------|
|-------------------------|---------------------|
|--3-----------5----------|--7-----------2------|
|--3-----------5----------|--7-----------2------|
|--3-----------5----------|--7-----------2------|
|
|  E  E  E  E  E  E  E  E    E  E  E  E  Q   Q
|----------17-19-------19-|-20----17-20-19------|
|-22----------------20-15-|-17-------17-----20--|
|-------22-17-19-19-16----|----21-17----19------|
|-22-22-19-------17-------|----19-----------21--|
|----20-------------------|---------------------|
|-------------------------|---------------------|


   E  E  E  E  +E   E  E E   +E  E E E +E  E E E   W          +W
|--------------------------|---------------------|----------|--------|
|--------------------------|---------------------|----------|--------|
|--2-----2-----------------|---------------------|----------|--------|
|--2-----2--5--(5)-----5-7-|-(7)---7-5-(5)---5---|-3--------|-(3)----|
|--0--0--0--5--(5)-----5-7-|-(7)---7-5-(5)---5---|-3--------|-(3)----|
|-----------5--(5)--5--5-7-|-(7)-7-7-5-(5)-5-5-3-|-3--------|-(3)----|
|
|  E  E  E  E  +E   E  E E   +E  E E E +E  E Q     W          +W
|--------------------------|---------3-(3)---3---|-5--------|-(5)----|
|------------------------5-|-(5)-3-5-------5-----|----------|--------|
|--------------------------|---------------------|----------|--------|
|--------------------------|---------------------|----------|--------|
|--------------------------|---------------------|----------|--------|
|-19-21-22-24-(24)-22-24---|---------------------|----------|--------|


  E E E E H      +Q   Q  H
|--------------|--------------*|
|--------------|--------------*|
|-------2-2----|-(2)----------*|
|-------2-2----|-(2)----------*|
|-0-0---0-0----|-(0)----------*|
|--------------|--------------*|
|
| E E E E H      +Q   Q  H
|--------------|--------------*|
|--------------|--------------*|
|--------------|--------------*|
|-------7-7----|-(7)----------*|
|-------7-7----|-(7)----------*|
|-7-7---7-7----|-(7)----------*|
Comments