Children Of Bodom - Downfall Chords & Tabs

 

Downfall Chords & Tabs

Children Of Bodom Chords & Tabs

Version: 3 Type: Bass Tab 0 ratings
1 star 2 stars 3 stars 4 stars 5 stars
comments

Downfall Bass Tab

   
-----------------------------------------------------------------
Downfall - Children of Bodom
-----------------------------------------------------------------

Tabbed By : Sk8ass
e-mail: devilmax30@hotmail.com

Tuning:d g c f

Intro

f|-------------------------------------------------------------------------------|
c|-------------------------------------------------------------------------------|
g|-------------------------------------------------------------------------------|
d|-0~-0-0-------0-2-4~-4-4----0~-0-0---------------------------------------------|

Fig 1 X2

f|----------------------------------------------------------------------------|   (second time)
c|----------------------------0-2-33333333333333333333333333333---------------|
g|-------------------------2--------------------------------------------------|
d|-44444444444444444444444---------------------------------------------(2-0)--|

fig 2

f|------------------------------------------------------------------------|
c|------------------------------------------------------2~----------------|
g|-----------------0-------2~-------------2~--------5~--------------------|
d|-0~--------3~-----------------1~----------------------------------------|

fig 3  X2

f|----------------------------222222222222222222--0000000000000000000----------|
c|-22222222222-33333333333333--------------------------------------------------|
g|-----------------------------------------------------------------------------|
d|-----------------------------------------------------------------------------|

f|--------------222222222222222222--0000000000000---9999999999999999---------|
c|--2222222222---------------------------------------------------------------|
g|---------------------------------------------------------------------------|
d|---------------------------------------------------------------------------|

Fig 4

f|--------------------------------------------------------------------------|
c|--------------------------------------------------------------------------|
g|---------------------------------------------------5-5-2------------------|
d|-4-5-2-4----5-2-4-5--4-5-2-4---5-2-4-5-------4-4---------5--2/4-----------|


Fig 5

f|------------------------------------------------|
c|------------------------------------------------|
g|----2~----4~----2~----4~------------------------|
d|-4~----2~----4~----2~------4442-22-4442-22--0~--|

Fig 6 X3

f|---------------------------------------------------------------|
c|---------------------------------------------------------------|
g|---------------------------------------------------------------|
d|---4444-2222-4444-2222-0000-2222-4444-2222---------------------|


Fig 4 (modificated)

f|---------------------------------------------------------------|
c|---------------------------------------------------------------|
g|---------------------------------------------------------------|
d|-4-5-2-4-------5-2-4-5------4-5-2-4--------5-2-4-5------4~-----|

Fig 6

f|---------------------------------------------------------------------------|
c|---------------------------------------------------------------------------|
g|---------------------------------------------------------------------------|
d|-2-4---0~-00--2-0-0~-------------------------------------------------------|

Fig 2
[ Tab from: http://www.guitartabs.cc/tabs/c/children_of_bodom/downfall_btab_ver_3.html ]
f|-------------------------------------------------------------------------|
c|------------------------------------------------------2~-----------------|
g|-----------------0~-------2~-------------2~--------5~--------------------|
d|-0~--------3~-----------------1~-----------------------------------------|

Fig 3 X 2


f|----------------------------222222222222222222--0000000000000000000----------|
c|-22222222222-33333333333333--------------------------------------------------|
g|-----------------------------------------------------------------------------|
d|-----------------------------------------------------------------------------|

f|--------------222222222222222222--0000000000000---9999999999999999---------|
c|--2222222222---------------------------------------------------------------|
g|---------------------------------------------------------------------------|
d|---------------------------------------------------------------------------|

Fig 7

f|-------------------7-9------------------------------------------------------|
c|-------7-7-9-10-10----------------------3---5---3---5-----------------------|
g|------------------------4-6-----9-7---4---2---4---2-------------------------|
d|-4----------------------------------------------------4---------------------|


Fig 8 (variation)

f|-----------------------------------------9------------------------------------------|
c|----------------------------------7-9-10--------------------------------------------|
g|-6-6-6---4-4--6-6-6---4-4---6-6-6--------4-6-4-6-6-4--------------------------------|
d|-------7------------7---------------------------------------------------------------|

f|--------------------------3-4-4-4-4-4-4-4-5-4-2-0-------------------------|
c|-----------------------5-7-----------------------------5------------------|
g|-6-6-6---4-4---------7-----------------------------6-8---8-6--------------|
d|-------7--------7-8-------------------------------------------------------|

f|---------2----------12-14-16------2-------------------------------------------|
c|-----------------6------------------------------------------------------------|
g|-4-6---4----6-8-9-----------4-6-4---2--2-6--------6---------------------------|
d|------------------------------------------------------------------------------|


Fig 9

f|---------------------------------------------------------------------------------------|
c|---------------------------------------------------------------------------------------|
g|----2~----4~----2~----4~---------------------------------------------------------------|
d|-4~----2~----4~----2~-----444-222-444-222-0~-------------------------------------------|

Fig 6 X 2

f|---------------------------------------------------------------|
c|---------------------------------------------------------------|
g|---------------------------------------------------------------|
d|---4444-2222-4444-2222-0000-2222-4444-2222---------------------|

Fig 6 variation here X2


f|---------------------------------------------|
c|---------------------------------------------|
g|---------------------------------------------|
d|--6666-4444-66666-4444-2222-44444-6666-4444--|
ending

f|------------------------------------------------------------------------------------|
c|------------------------------------------------------------------------------------|
g|------------------------------------------------------------------------------------|
d|-666-444-666-444-2~----0-0-8-6~-----------------------------------------------------|

| / slide up
| \ slide down
| h hammer-on
| p pull-off
| ~ vibrato
| + harmonic
| x Mute note
Comments