Children Of Bodom - Dont Stop At The Top Chords & Tabs

 

Dont Stop At The Top Chords & Tabs

Children Of Bodom Chords & Tabs

Version: 1 Type: Bass Tab 0 ratings
1 star 2 stars 3 stars 4 stars 5 stars
comments

Dont Stop At The Top Bass Tab

tune down

F||---------------------|--------------------|---------------------|
C||---------------------|--------------------|---------------------|
G||---------------------|--------3------2----|------------------5--|
D||--5------3--------1--|--------------------|--5------3-----------|
A||---------------------|--------------------|---------------------|


                                                               
-------------------|---------------------|--------------------|
-------------------|---------------------|--------------------|
-------------------|---------------------|--------3------2----|
--------1----------|--5------3--------1--|--------------------|
-------------------|---------------------|--------------------|


                                                                
---------------------|-------------------|---------------------|
---------------------|-------------------|---------------------|
------------------5--|-------------------|---------------------|
--5------3-----------|--------1----------|--5------3--------1--|
---------------------|-------------------|---------------------|


                                                               
--------------------|---------------------|-------------------|
--------------------|---------------------|-------------------|
--------3------2----|------------------5--|-------------------|
--------------------|--5------3-----------|--------1----------|
--------------------|---------------------|-------------------|


                                                                
---------------------|--------------------|--------------------|
---------------------|--------------------|--------------------|
---------------------|--------3------2----|--------------------|
--5------3--------1--|--------------------|--5------3----------|
---------------------|--------------------|--------------------|

[ Tab from: http://www.guitartabs.cc/tabs/c/children_of_bodom/dont_stop_at_the_top_btab.html ]
                                                                             
-------------------|------------------|------------------|------------------|
-------------------|------------------|------------------|------------------|
-------------------|------------------|------------------|------------------|
--1----------------|------------------|------------------|------------------|
-------------------|------------------|------------------|------------------|


                                                                            
------------------|------------------|------------------|------------------|
------------------|------------------|------------------|------------------|
------------------|------------------|------------------|------------------|
------------------|------------------|------------------|------------------|
------------------|------------------|------------------|------------------|


                                                                            
------------------|------------------|------------------|------------------|
------------------|------------------|------------------|------------------|
------------------|------------------|------------------|------------------|
------------------|------------------|------------------|------------------|
------------------|------------------|------------------|------------------|


                                                                            
------------------|------------------|------------------|------------------|
------------------|------------------|------------------|------------------|
------------------|------------------|------------------|------------------|
------------------|------------------|------------------|------------------|
------------------|------------------|------------------|------------------|


                    
------------------||
------------------||
------------------||
------------------||
------------------||
Comments