Children Of Bodom - Bodom Beach Terror Chords & Tabs

 

Bodom Beach Terror Chords & Tabs

Children Of Bodom Chords & Tabs

Version: 1 Type: Tab 0 ratings
1 star 2 stars 3 stars 4 stars 5 stars
comments

Bodom Beach Terror Tab

funeralforafrie & Antti Rantala.


Tempo: 150.
Tuning: DGCFAD

Second part of the solo. 

|-------------------------------------------|
|-------------------------------------------|
|-------------------------------------------|
|-------------------------------------------|
|-----------9-------9-11----9-11-12-9-11-12-|
|---9-11-12---11-12------12-----------------|


                                             
|--------------------------------------------|
|--------------------------------------------|
|----------------------------------9-11----9-|
|--9-------9-11----9-11-12-9-11-12------12---|
|----11-12------12---------------------------|
|--------------------------------------------|


                                                   
|-----------------------------------------14-16-19-|
|-----------12-14----12-14-15-12-14-15-17----------|
|--11-13-14-------14-------------------------------|
|--------------------------------------------------|
|--------------------------------------------------|
|--------------------------------------------------|


                                                   
|--16h12----------16/21h16----------16-22/24r------|
|--------12----12----------17----17----------------|
|-----------13----------------16-------------------|
|--------------------------------------------------|
|--------------------------------------------------|
|--------------------------------------------------|

[ Tab from: http://www.guitartabs.cc/tabs/c/children_of_bodom/bodom_beach_terror_tab.html ]
                                     
|--24~-------19-21-22-19-21----19----|
|---------------------------22----21-|
|------------------------------------|
|------------------------------------|
|------------------------------------|
|------------------------------------|


                                                   
|--------------19-21-22-19-21----19----------------|
|--22-19-21-22----------------22----21-22-19-21-22-|
|--------------------------------------------------|
|--------------------------------------------------|
|--------------------------------------------------|
|--------------------------------------------------|


                                                   
--19-21-22-21-19-17-21-19-17----19-17-------------|
-----------------------------21-------21-19-17----|
-----------------------------------------------19-|
--------------------------------------------------|
--------------------------------------------------|
--------------------------------------------------|


                                                                   
|-----------------------14h17/21/22/24~------|--24b---------------||
|--------------------14----------------------|--------------------||
|--18-16----------14-------------------------|--------------------||
|--------19-18-16----------------------------|--------------------||
|--------------------------------------------|--------------------||
|--------------------------------------------|--------------------||
Comments