Children Of Bodom - Angels Dont Kill Chords & Tabs

 

Angels Dont Kill Chords & Tabs

Children Of Bodom Chords & Tabs

Version: 1 Type: Tab 0 ratings
1 star 2 stars 3 stars 4 stars 5 stars
comments

Angels Dont Kill Tab

-------------------------------------------------------------------------------
			     Angels Don't Kill - Children of Bodom
-------------------------------------------------------------------------------
Tabbed by:metal_militia16
Email:iamtherealelvis@hotmail.com

Tuning:Down 1 1/2 steps to C#

 Keyboard intro arranged for guitar
e|-0-0-7-0-0-0-8-0-|-0-0-7-0-0-0-5-0-|
B|-----------------|-----------------|
G|-----------------|-----------------|
D|-----------------|-----------------|
A|-----------------|-----------------|
E|-----------------|-----------------|

 Guitar 1 & 2                           PH          PH
e|-------|------|-------|-------|------------------------------|
B|-------|------|-------|-------|------------------------------|
G|-------|------|-------|-------|------------------------------|
D|-------|------|-------|-------|------------------------------|
A|---2---|------|---2---|-------|------------------------------|
E|---0---|------|---0---|-------|--0-0---3~~---0-0---3~~-------|
 play this x 2                                                2
e|-------------------------|---------------------|----------------------------|
B|-------------------------|---------------------|----------------------------|
G|-------9---------10------|----------10~~--9~~--|----------------------------|
D|----/9--9-----/9---9-----|---------------------|-----------%----------------|
A|-------------------------|---------------------|----------------------------|
E|-0--------0-0---------0--|-0-0-0-0-------------|----------------------------|
[ Tab from: http://www.guitartabs.cc/tabs/c/children_of_bodom/angels_dont_kill_tab.html ]
 verse
e|-----------|-----------------------------------|----------|-----------------------------|
B|-----------|-----------------------------------|----------|-----------------------------|
G|--5----7---|---------------ph------------------|--5----7--|-----------------------------|
D|--5----7---|----------------7~------7--5--5-7--|--5----7--|-------------------97--------|
A|--3----5---|------9br7-------------------------|--3----5--|-------9br7---7-9-----10-9---|
E|-----------|-0-0-------0-0-----0--0------------|----------|--0-0------------------------|

e|-----------|---------------------------------|------------|----------------------|
B|-----------|---------------------------------|------------|----------------------|
G|--5----7---|-----------------ph--------------|---5---7----|----------------------|
D|--5----7---|-----------------7~-----7-5-5-7--|---5---7----|-------------4-5------|
A|--3----5---|-------9br7----------------------|---3---5----|-5-5-5-5-5-5-2-3------|
E|-----------| -0-0-------0--0----0-0----------|------------|-3-3-3-3-3-3----------|

cool melodic part---not 100 % correct
e|-----------------------|---------------------------------------------------|
B|--10---14--9--14-------|--10--14--9--14------------------------------------|
G|-------------------14--|-----------------14---14--12-----------------------|
D|-----------------------|-----------------------------14--------------------|
A|-----------------------|---------------------------------------------------|
E|-----------------------|---------------------------------------------------|

That's basically it, just a few changes in the verse, I'll post more when I have time
and when I learn the solo.
Comments