Childish Gambino - Flight Of The Navigator Chords & Tabs

 

Flight Of The Navigator Chords & Tabs

Childish Gambino Chords & Tabs

Version: 1 Type: Chords 0 ratings
1 star 2 stars 3 stars 4 stars 5 stars
comments

Flight Of The Navigator Chords

   
I. Flight of the Navigator
from Because the Internet


Intro:
E|-----------------|--------------|------------------|-----------------|
B|---------11------|--------9-----|----------14------|---------10------|
G|-------------10--|-----------8--|--------------13--|-------------11--|
D|-----11----------|-----9--------|------14----------|-----11----------|
A|--9--------------|--7-----------|--12--------------|--9--------------|
E|-----------------|--------------|------------------|-----------------|
   F#maj7            Emaj7          Amaj7              F#m

E|-------------------|--------------|
B|-----------12------|--------9-----|
G|---------------11--|-----------9--|
D|------13-----------|-----9--------|
A|--11---------------|--7-----------|
E|-------------------|--------------|
   G#m7                E

F#maj7        Emaj7
I had a dream
                                          F#maj7
I had a dream I was flying over all of us
Emaj7
There were so many pretty people
                     F#maj7
So many pretty faces
                       Emaj7
I talked to some birds
                     F#maj7
I fell in love again
                            Emaj7
And none of this ever ended
                                   Amaj7       F#m  G#m7
Everything just kept going and going and going
                                    E
And even when you laughed you cried
                      Amaj7                     F#m
And even when you were sad you were really happy
                      G#m7
Because you were here
                E
And I got to meet every star
             Amaj7
Every planet
                        F#m G#m7
Everything that made me
                  E
And we all kissed
                    Amaj7
And became the same
                   F#m G#m7
We became the same
                   E
We became the same

[ Tab from: http://www.guitartabs.cc/tabs/c/childish_gambino/flight_of_the_navigator_crd.html ]
Verses:
E|--------------|--------------|--------------|--------------|
B|--------1-----|--------------|--------------|--------------|
G|-----------2--|--------2-----|--------4-----|--------1-----|
D|-----2--------|-----------4--|-----------4--|-----------2--|
A|--0-----------|-----4--------|-----6--------|-----2--------|
E|--------------|--2-----------|--4-----------|--0-----------|
   Amaj7          F#m            G#m7           E


Amaj7
            F#m
Who would have thought this
         G#m7
We almost lost it
                   E                          Amaj7
When you lie inside darkness it's hard to see
             F#m
And we sleep in tradition
              G#m7
Keep them off in the distance
                E               Amaj7
To tell you that I haven't been


   F#m G#m7      E    Amaj7
We are all cold water
   F#m     G#m7     E
Why try at all? Why bother?
                    Amaj7     F#m
Just hold me close my darling
                    G#m7      E
Just hold me close my darling
                    Amaj7     F#m
Just hold me close my darling
                     NC       Amaj7
Just hold me close my darling


       F#m
Who would have dreamed this?
          G#m7
You couldn't mean this
               E                                 Amaj7
Could it be some type of meanness where you are?
      F#m                     G#m7
Cause I don't know where to go
     E                       Amaj7
And no one else seems to know


   F#m  G#m7        E     Amaj7
We are all knights fallen
   F#m     G#m7      E       Amaj7
Why try at all? Dark calling
         F#m       G#m7
So we're left alone
       E                Amaj7
No one left to call upon
     F#m                   G#m7
Be still now, broken bones
    E                           Amaj7        F#m
As I travel on just hold me close my darling
                 G#m7         E
Just hold me close my darling
            Amaj7        F#m
Hold me close my darling
                 G#m7         E
Just hold me close my darling


Amaj7  F#m  G#m7  E x2


Amaj7    F#m       G#m7
So we're left alone
       E                Amaj7
No one left to call upon
     F#m                   G#m7
Be still now, broken bones
    E                           NC(synth)
As I travel on just hold me close my darling

Just hold me close my darling

Hold me close my darling

Just hold me close my darling
Comments