Chikinki - Assassinator 13 Chords & Tabs

 

Assassinator 13 Chords & Tabs

Chikinki Chords & Tabs

Version: 1 Type: Tab 0 ratings
1 star 2 stars 3 stars 4 stars 5 stars
comments

Assassinator 13 Tab

"Assassinator 13", from the new album "Lick Your Ticket" by Chikinki.  URL for band: www.chikinki.co.uk

-------------------------------------------------------------------------------
			     ASSASSINATOR 13 - Chikinki
-------------------------------------------------------------------------------
Tabbed by: Dave Nimmo
Email: dave.nimmo@btinternet.com

Tuning: Standard

You'll  want some nice crunchy distortion to get it sounding right, and the sound 

pretty much towards the treble side.  Listen to the song first to get the rhythm 

right, and play it in short, spikey strums. I think they might strum it backwards 

aswell.

The number in brackets after each chord is just how many times you play that chord.

This lot repeats itself throughtout the song.

[ Tab from: http://www.guitartabs.cc/tabs/c/chikinki/assassinator_13_tab.html ]
e|10-(x5)-10-(x5)-10-(x6)-9-(x1)-8-(x2)--------------------------------------|
B|11------10------10------9------8-------------------------------------------|
G|12------12------11------9------9-------------------------------------------|
D|12------12------12------11-----10------------------------------------------|
A|10------10------12------11-----10------------------------------------------|
E|10------10------10------9------8-------------------------------------------|

PLAY THE ABOVE PART 4 TIMES, THEN:

e|10-(x5)-8-(x5)-15-(x5)-13-(x5)-11-(x10)-10-(x10)---------------------------|
B|11------10-----16------13------11-------10---------------------------------|
G|12------10-----17------14------12-------11---------------------------------|
D|12------10-----17------15------13-------12---------------------------------|
A|10------8------15------15------13-------12---------------------------------|
E|10------8------15------13------11-------10---------------------------------|

e|10-(x5)-10-(x5)-10-(x5)-10-(x5)--------------------------------------------|
B|11------10------10------11-------------------------------------------------|
G|12------12------11------12-------------------------------------------------|
D|12------12------12------12-------------------------------------------------|
A|10------10------12------10-------------------------------------------------|
E|10------10------10------10-------------------------------------------------|

===============================================================================
Comments