Chicosci - When Flight Is Denied Chords & Tabs

 

When Flight Is Denied Chords & Tabs

Chicosci Chords & Tabs

Version: 2 Type: Tab 0 ratings
1 star 2 stars 3 stars 4 stars 5 stars
comments

When Flight Is Denied Tab

   
Transcribed by: Alvin (S.L.A.Y.E.R@gopilipinas.com) 
Song: When Flight is Denied
Band: Chicosci
Album: Icarus
Tuning:Dropped C [C-G-C-F-A-D]

Intr0 1:
b0th Guitars
D|---------------------------------||
A|---------------------------------||
F|---------------------------------|| 4x
C|-5-5--3--5--3--5--3---1-1--4-4-4-||
G|-5-5--3--5--3--5--3---1-1--4-4-4-||
C|-5-5--3--5--3--5--3---1-1--4-4-4-||

Guitar 1
D|---------------------------------||---------------------------------||
A|---------------------------------||---------------------------------||
F|---------------------------------||---------------------------------||
C|-5-5--3--5--3--5--3---1-1--4-4-4-||-5-5--3--5--3--5--3---1-1--4-4-4-||
G|-5-5--3--5--3--5--3---1-1--4-4-4-||-5-5--3--5--3--5--3---1-1--4-4-4-||
C|-5-5--3--5--3--5--3---1-1--4-4-4-||-5-5--3--5--3--5--3---1-1--4-4-4-||
Guitar 2                           ||                                 || 2x
D|---------------------------------||---------------------------------||
A|---------------------------------||---------------------------------||
F|-12---11-12-14-12-11----12-10~---||---------------------------------||
C|---------------------------------||---------------------------------||
G|---------------------------------||---------------------------------||
C|---------------------------------||---------------------------------||

Verse 1:
Guitar 1
D|--------------------------------------------||--------------------------------------------||
A|--------------------------------------------||--------------------------------------------||
F|--------------------------------------------||--------------------------------------------||
C|-9-9--10-10--12-12--10-10---7-7-7-7-7-7-7-7-||-9-9--10-10--12-12--10-10---7-7-7-7-7-7-7-7-||
G|-7-7--8--8---10-10--8--8----5-5-5-5-5-5-5-5-||-7-7--8--8---10-10--8--8----5-5-5-5-5-5-5-5-||
C|--------------------------------------------||--------------------------------------------||
Guitar 2                                      ||                                            ||
D|--------------------------------------------||--------------------------------------------||
A|-----7----------------------7p5s3-----------||------7--7p5-5p3----3p1---------------------||
F|-5h7----------------------------------------||-5h7----------------------------------------||
C|--------------------------------------------||--------------------------------------------||
G|--------------------------------------------||--------------------------------------------||
C|--------------------------------------------||--------------------------------------------||

Chorus 1:
Guitar 1
D|---------------------------------||---------------------------------||
A|---------------------------------||---------------------------------||
F|---------------------------------||---------------------------------||
C|-5-5--3--5--3--5--3---1-1--4-4-4-||-5-5--3--5--3--5--3---1-1--4-4-4-||
G|-5-5--3--5--3--5--3---1-1--4-4-4-||-5-5--3--5--3--5--3---1-1--4-4-4-||
C|-5-5--3--5--3--5--3---1-1--4-4-4-||-5-5--3--5--3--5--3---1-1--4-4-4-||
Guitar 2                           ||                                 || 2x
D|---------------------------------||---------------------------------||
A|---------------------------------||---------------------------------||
F|-12---11-12-14-12-11----12-10~---||---------------------------------||
C|---------------------------------||---------------------------------||
G|---------------------------------||---------------------------------||
C|---------------------------------||---------------------------------||

Verse 2:
Guitar 1
D|--------------------------------------------||--------------------------------------------||
A|--------------------------------------------||--------------------------------------------||
F|--------------------------------------------||--------------------------------------------||
C|-9-9--10-10--12-12--10-10---7-7-7-7-7-7-7-7-||-9-9--10-10--12-12--10-10---7-7-7-7-7-7-7-7-||
G|-7-7--8--8---10-10--8--8----5-5-5-5-5-5-5-5-||-7-7--8--8---10-10--8--8----5-5-5-5-5-5-5-5-||
C|--------------------------------------------||--------------------------------------------||
Guitar 2                                      ||                                            ||
D|--------------------------------------------||--------------------------------------------||
A|-----7----------------------7p5s3-----------||------7--7p5-5p3----3p1---------------------||
F|-5h7----------------------------------------||-5h7----------------------------------------||
C|--------------------------------------------||--------------------------------------------||
G|--------------------------------------------||--------------------------------------------||
C|--------------------------------------------||--------------------------------------------||
[ Tab from: http://www.guitartabs.cc/tabs/c/chicosci/when_flight_is_denied_tab_ver_2.html ]
Guitar 1
D|----------------------------------------------||
A|----------------------------------------------||
F|----------------------------------------------||
C|-9-9--10-10--12-12--10-10---7-7-7-7-7-7-7-7---||
G|-7-7--8--8---10-10--8--8----5-5-5-5-5-5-5-5---||
C|----------------------------------------------||
Guitar 2                                        || 2x
D|----------------------------------------------||
A|-9-9-9\7-7-7\5-5-5\3-3h5-3~-------------------||
F|-7-7-7\5-5-5\3-3-3\1-----1~-------------------||
C|----------------------------------------------||
G|----------------------------------------------||
C|----------------------------------------------||

Pre-ch0rus:
BOth Guitars
D|-------------------------------------------------||
A|-------------------------------------------------||
F|-------------------------------------------------||
C|-3-3-3-3-3-3-3-3-3-3-3---1-1-1-1-1-1-1-1-1-1-1-1-|| 2x
G|-3-3-3-3-3-3-3-3-3-3-3---1-1-1-1-1-1-1-1-1-1-1-1-||
C|-3-3-3-3-3-3-3-3-3-3-3---1-1-1-1-1-1-1-1-1-1-1-1-||

Chorus 2:
Both Guitars
D|---------------------------------||
A|---------------------------------||
F|---------------------------------|| 4x
C|-5-5--3--5--3--5--3---1-1--4-4-4-||
G|-5-5--3--5--3--5--3---1-1--4-4-4-||
C|-5-5--3--5--3--5--3---1-1--4-4-4-||

Guitar 1
D|---------------------------------||---------------------------------||
A|---------------------------------||---------------------------------||
F|---------------------------------||---------------------------------||
C|-5-5--3--5--3--5--3---1-1--4-4-4-||-5-5--3--5--3--5--3---1-1--4-4-4-||
G|-5-5--3--5--3--5--3---1-1--4-4-4-||-5-5--3--5--3--5--3---1-1--4-4-4-||
C|-5-5--3--5--3--5--3---1-1--4-4-4-||-5-5--3--5--3--5--3---1-1--4-4-4-||
Guitar 2                           ||                                 || 2x
D|---------------------------------||---------------------------------||
A|---------------------------------||---------------------------------||
F|-12---11-12-14-12-11----12-10----||---------------------------------||
C|---------------------------------||---------------------------------||
G|---------------------------------||---------------------------------||
C|---------------------------------||---------------------------------||

Verse 3:
Guitar 1
D|--------------------------------------------||--------------------------------------------||
A|--------------------------------------------||--------------------------------------------||
F|--------------------------------------------||--------------------------------------------||
C|-9-9--10-10--12-12--10-10---7-7-7-7-7-7-7-7-||-9-9--10-10--12-12--10-10---7-7-7-7-7-7-7-7-||
G|-7-7--8--8---10-10--8--8----5-5-5-5-5-5-5-5-||-7-7--8--8---10-10--8--8----5-5-5-5-5-5-5-5-||
C|--------------------------------------------||--------------------------------------------||
Guitar 2                                      ||                                            ||
D|--------------------------------------------||--------------------------------------------||
A|-----7----------------------7p5s3-----------||------7--7p5-5p3----3p1---------------------||
F|-5h7----------------------------------------||-5h7----------------------------------------||
C|--------------------------------------------||--------------------------------------------||
G|--------------------------------------------||--------------------------------------------||
C|--------------------------------------------||--------------------------------------------||

Guitar 1
D|----------------------------------------------||
A|----------------------------------------------||
F|----------------------------------------------||
C|-9-9--10-10--12-12--10-10---7-7-7-7-7-7-7-7---||
G|-7-7--8--8---10-10--8--8----5-5-5-5-5-5-5-5---||
C|----------------------------------------------||
Guitar 2                                        || 2x
D|----------------------------------------------||
A|-9-9-9\7-7-7\5-5-5\3-3h5-3--------------------||
F|-7-7-7\5-5-5\3-3-3\1-----1--------------------||
C|----------------------------------------------||
G|----------------------------------------------||
C|----------------------------------------------||

Pre-ch0rus 2:
BOth Guitars
D|-------------------------------------------------||
A|-------------------------------------------------||
F|-------------------------------------------------||
C|-3-3-3-3-3-3-3-3-3-3-3---1-1-1-1-1-1-1-1-1-1-1-1-|| 2x
G|-3-3-3-3-3-3-3-3-3-3-3---1-1-1-1-1-1-1-1-1-1-1-1-||
C|-3-3-3-3-3-3-3-3-3-3-3---1-1-1-1-1-1-1-1-1-1-1-1-||

Chorus 3:
Both Guitars
D|---------------------------------||
A|---------------------------------||
F|---------------------------------|| 4x
C|-5-5--3--5--3--5--3---1-1--4-4-4-||
G|-5-5--3--5--3--5--3---1-1--4-4-4-||
C|-5-5--3--5--3--5--3---1-1--4-4-4-||

Guitar 1
D|---------------------------------||---------------------------------||
A|---------------------------------||---------------------------------||
F|---------------------------------||---------------------------------||
C|-5-5--3--5--3--5--3---1-1--4-4-4-||-5-5--3--5--3--5--3---1-1--4-4-4-||
G|-5-5--3--5--3--5--3---1-1--4-4-4-||-5-5--3--5--3--5--3---1-1--4-4-4-||
C|-5-5--3--5--3--5--3---1-1--4-4-4-||-5-5--3--5--3--5--3---1-1--4-4-4-||
Guitar 2                           ||                                 || 2x
D|---------------------------------||---------------------------------||
A|---------------------------------||---------------------------------||
F|-12---11-12-14-12-11----12-10----||---------------------------------||
C|---------------------------------||---------------------------------||
G|---------------------------------||---------------------------------||
C|---------------------------------||---------------------------------||
Comments