Chicosci - Shallow Graves Chords & Tabs

 

Shallow Graves Chords & Tabs

Chicosci Chords & Tabs

Version: 3 Type: Tab 0 ratings
1 star 2 stars 3 stars 4 stars 5 stars
comments

Shallow Graves Tab

Shallow Graves -Tuning - Drop D
PALAKPAKAN!!!!
Intro:
Guitar 1
E|------------------|
B|------------------|
G|------------------|	pakinggan para alam kung ilang beses uulitin.
D|-333-666-88-------|
A|-333-666-88-------|
D|-333-666-88-------|
Guitar 2(1st part)
E|---16-13-13-16-13-13-16-13-|
B|---------------------------|
G|---------------------------|	ulitin ng ulitin, timingan nyo.
D|---------------------------|
A|---------------------------|
D|---------------------------|
Then (3rd part)
E|----------------------|
B|----------------------|
G|-3/5-5/8-8888---------|		makinig at alamin kung ilang ulit ito.
D|----------------------|
A|-1/3-3/6-6666---------|
D|----------------------|
Verse:
Guitar 1
E|-------------------|
B|-------------------|
G|------------8-8----|	ulitin ng ulitin! Buong verse 1 ito
D|------10-10--------|
A|------xx-xx--------|
D|-8/1010-10--------|
Chorus:
Guitar 1 do the chorus and Guitar 1 do the 1st part of lead 8x
E|-------------------|
B|-------------------|
G|-------------------|
D|-333-666-88--------|
A|-333-666-88--------|
D|-333-666-88--------|

Guitar 2
E|---16-13-13-16-13-13-16-13-|
B|---------------------------|
G|---------------------------|	ulitin ng ulitin, timingan nyo.
D|---------------------------|
A|---------------------------|
D|---------------------------|

E|-------------------|
B|-------------------|
G|-------------------|
D|-1~~~~~------------|
A|-1~~~~~------------|
D|-1~~~~~------------|
 ( Why are fresh tears falling? )
Guitar 1
E|---------------------|
B|---------------------|
G|---------------------|    timing ulit
D|-333-666-88----------|
A|-333-666-88----------|
D|-333-666-88----------|
  |---- P. M. ---------|
 ( White roses all around us now.. )
[ Tab from: http://www.guitartabs.cc/tabs/c/chicosci/shallow_graves_tab_ver_3.html ]
Guitar 2(1st part)
E|---16-13-13-16-13-13-16-13-|
B|---------------------------|
G|---------------------------|	ulitin ng ulitin, timingan nyo.
D|---------------------------|
A|---------------------------|
D|---------------------------|

E|-------------------|
B|-------------------|
G|-------------------|
D|-1~~~~~------------|
A|-1~~~~~------------|
D|-1~~~~~------------|
 ( A little pray---er )
Verse 2:
Guitar 2
E|-------------------|
B|-------------------|
G|------------8-8----|	ulitin ng ulitin! Buong verse 1 ito
D|------10-10--------|
A|------xx-xx--------|
D|-8/1010-10--------|

Guitar 1 play the intro but enters on 7th times
Repeat chorus
Then:
Do this twice
E|--------------|
B|--------------|
G|--------------|
D|-1~~~~~-------|
A|-1~~~~~-------|
D|-1~~~~~-------|
 ( A little prayeeeeeer!2x Signaling the end!!!)
Drum and vocals part:
PALAKPAKAN
Guitar 2
E|----------------------|
B|----------------------|
G|-3/5-5/8-8888---------|		makinig at alamin kung ilang ulit ito.
D|----------------------|
A|-1/3-3/6-6666---------|
D|----------------------|
(eto muna tapos..........)
Guitar 2(1st part)
E|---16-13-13-16-13-13-16-13-|
B|---------------------------|
G|---------------------------|	ulitin ng ulitin, timingan nyo.
D|---------------------------|
A|---------------------------|
D|---------------------------|

Guitar 1 Repeat Chorus till end
End:
E|--------------|
G|--------------|
B|--------------|
D|-333-666-8----|
A|-333-666-8----|
D|-333-666-8----|

Di ko masyado sure itong end, kasi ang gulo gulo ni migs, di ko tuloy marinig ng mabuti, sigaw ng sigaw!

kina alex aldaba, lester ventic, keith ardena, cj janolo, krishelle  escano, kat yac, 
baterna, hannah capili, ian fortunado. Mga taga PLM yan, bugbugin nyo ok!!
Comments