Chicosci - Pimpstyle Chords & Tabs

 

Pimpstyle Chords & Tabs

Chicosci Chords & Tabs

Version: 1 Type: Tab 0 ratings
1 star 2 stars 3 stars 4 stars 5 stars
comments

Pimpstyle Tab

                         "PIMPSTYLE"BY CHICOSCI
                       transcribed by:freongang
                   visit me at:freongang_81@yahoo.com       
                        freongang_08@yahoo.com

          NOTE: FOR THOSE WHO EMAIL ME AND REQUESTING FOR TABS...
                   "PUTANG INA SALAMAT SA TIWALA NYO?!?!"  

Tuning:dropped D
 
  intro:     as many times
       X3              then proceed here
 |----------------  --------------------------|
 |----------------  --------------------------|
 |----------------  ----------3---------------|
 |-2-5-4-2--------  --2-5-4-2-3---------------|
 |-2-5-4-2--------  --2-5-4-2-----------------|
 |----------------  --------------------------|
[ Tab from: http://www.guitartabs.cc/tabs/c/chicosci/pimpstyle_tab.html ]
  some of some away...
       X3               then proceed here
 
 |-----------------  -------------------------|
 |-----------------  --------------5----------|
 |-5-5h4-5-5h6-----  --5-5h4-5-5h6---6--------|
 |-----------------  -------------------------|
  -----------------  ------------------------- 
               X4
 |------------------------------------------|
 |------------------------------------------|
 |------------------------------------------|
 |-5-x-5-5-x-5-5-x-4-4-x-4-4----------------|
 |-3-x-3-3-x-3-3-x-2-2-x-2-2----------------|
 |------------------------------------------|

 I'll see you on my way...  X2
 |---------------------------------------------------------------|
 |---------------------------------------------------------------|
 |---------------------------------------------------------------|
 |-7-7-7-7-7-7-7-7-------------------------------4-4-4-4/5-5-5-5-|
 |-5-5-5-5-5-5-5-5-3-3-3-3-3-3-3-3-4-4-4-4-4-4-4-2-2-2-2/3-3-3-3-|
 |-----------------1-1-1-1-1-1-1-1-2-2-2-2-2-2-2-----------------|

  adlib:    X7
 |------------------------------------------|
 |------------------------------------------|
 |------------------------------------------|
 |------------------------------------------|
 |-5/7-7-7-7-7-7-7-7/8-8-8-8-8-8-8----------|
 |------------------------------------------|

 |------------------------------------------|
 |------------------------------------------|
 |------------------------------------------|
 |------------------------------------------|
 |-5/7-7-7-7-7-7-7/8------------------------|
 |------------------------------------------|
     <<<>>>    
             <<<>>>
Comments