Chicosci - Paris Chords & Tabs

 

Paris Chords & Tabs

Chicosci Chords & Tabs

Version: 1 Type: Tab 0 ratings
1 star 2 stars 3 stars 4 stars 5 stars
comments

Paris Tab

   
SONG: Paris
BAND: Chico Sci.
ALBUM: Method of Breathing
TRANSCRIBED BY: Ron Moncada (emofreak_coc@yahoo.com)
RE-ARRANGE AND PASTE BY : Jeffrey Camposano (incustank@pinoymusika.com
website: http://justsayemo.musicdot.com ; http://cocband.musicdot.com

LEGEND:

/ or \   - slide up or down
p        - pull off
h	 - hammer on
p.m. --- - palm mute
b        - bend

Tuning: Tune guitar whole step down (DGCFAD) then drop d. 
Intro: 
D ------------------------     -------------
A ------------------------     -------------
F ------------------------     -------------
C -8-8-101010101010101010-(2x) -8-8-10101010(4x)
G -8-8--------------------     -8-8--------- 
C -8-8--------------------     -8-8---------

D ----------------------------------
A ----------------------------------
F -10101012-7-7-7-9-5-5-3-5-5-5-3-5-
C -8-8-8-10-5-5-5-7-3-3-3-3-3-3-3-3-
G -8-8-8-10-5-5-5-7-3-3-3-3-3-3-3-3-
C -8-8-8-10-5-5-5-7-3-3-3-3-3-3-3-3-
"listen to the cd to figure out the
rhythm pattern"
D ------------------
A ------------------
F -10101012-7-7-7-9-
C -8-8-8-10-5-5-5-7-
G -8-8-8-10-5-5-5-7-
C -8-8-8-10-5-5-5-7-
[ Tab from: http://www.guitartabs.cc/tabs/c/chicosci/paris_tab.html ]
Verse: 
Gtr.1 					       Gtr.2
D ------------------------     -------------     -------------
A ------------------------     -------------     -------------
F ------------------------     -------------     --1010----12-(4x)
C -8-8-101010101010101010-(2x) -8-8-10101010(4x) ------1212---
G -8-8--------------------     -8-8---------     -------------
C -8-8--------------------     -8-8---------     -------------

Chorus:
D ----------------------------------
A ----------------------------------
F -10101012-7-7-7-9-5-5-3-5-5-5-3-5-
C -8-8-8-10-5-5-5-7-3-3-3-3-3-3-3-3-
G -8-8-8-10-5-5-5-7-3-3-3-3-3-3-3-3-
C -8-8-8-10-5-5-5-7-3-3-3-3-3-3-3-3-
"listen to the cd to figure out the
rhythm pattern"
D --------------------
A --------------------
F -10101012-7-7-7-9-5-
C -8-8-8-10-5-5-5-7-3-
G -8-8-8-10-5-5-5-7-3-
C -8-8-8-10-5-5-5-7-3-

repeat verse & chorus

(1:58)
D -------121212131212------12121312-
A -131313------------131313---------
F ----------------------------------
C ----------------------------------(4x)
G ----------------------------------
C ----------------------------------
(flanger effect)

(2:08)				    (2:20)
Gtr.1 				    Gtr.2
D -----------------------------     -----------------
A ------101088-----------------     -----------------
F ------------10109977----7h9--     -----------------
C --0-0---------------1010-----(8x) -0-0-000-000-000-(4x)
G --0-0------------------------     -0-0-000-000-000-
C --0-0------------------------     -0-0-000-000-000-
p.m.- -                - -           - - --- --- ---

D ----     ----
A ----rep. ----rep.
F -10-lots -12-lots
C -8--of   -10-of
G -8--time -10-time
C -8--     -10-

repeat verse riff 2x & chorus till end
_end_
Comments