Chicosci - Paris Chords & Tabs

 

Paris Chords & Tabs

Chicosci Chords & Tabs

Version: 3 Type: Bass Tab

Paris Bass Tab

   
oi Earl hehehehehehehehehe....may tab narin ako....

Pakinggan nyo nalang yung paris tapos i apply nyo tong tab... walang magagawa kung 
ok..... salamat....
pakinggan nyo nalang yung timing

INTRO:

1,2 1,2,3,4

G|-----|
D|-----|
A|-66--|6X
E|-----|


Go!!!!!!!!

G|--------------|
D|--------------|
A|-6-66-666-666-|
E|--------------|

G|--------------|
D|--------------|
A|-3-33-333-333-|
E|--------------|

G|----------------------|
D|----------------------|
A|-11111-11-11-1--------|2X
E|----------------------|

G|-----------------------------|
D|-----------------------------|
A|-1/6-66-666-666-3-33-333-333-|
E|-----------------------------|

VERSE:

Could I be so affected……………

G|-----|
D|-----|
A|-66--|6X
E|-----|

CHORUS:

Speak now or forever……………….

G|--------------|
D|--------------|
A|-6-66-666-666-|
E|--------------|

G|--------------|
D|--------------|
A|-3-33-333-333-|
E|--------------|

G|----------------------|
D|----------------------|
A|-11111-11-11-1--------|2X
E|----------------------|

G|-----------------------------|
D|-----------------------------|
A|-1/6-66-666-666-3-33-333-333-|
E|-----------------------------|

VERSE II:

Pakinggan nyo ulit yung timing ng pag bass dito…..ok

I can't ever deny this……………

G|-----|
D|-----|
A|-66--|12X
E|-----|

Repeat CHORUS……

CHORUS:
[ Tab from: http://www.guitartabs.cc/tabs/c/chicosci/paris_btab_ver_3.html ]
Speak now or forever……………….

G|--------------|
D|--------------|
A|-6-66-666-666-|
E|--------------|

G|--------------|
D|--------------|
A|-3-33-333-333-|
E|--------------|

G|----------------------|
D|----------------------|
A|-11111-11-11-1--------|2X
E|----------------------|

G|-----------------------------|
D|-----------------------------|
A|-1/6-66-666-666-3-33-333-333-|
E|-----------------------------|

Repeat nyo itong tab ng chorus twice kasi mas mahaba yung second chorus..

ADLIB:

Sa may part na kas-kasan

G|-----|
D|-----|
A|-66--|4X
E|-----|

G|---------------------|
D|---------------------|
A|-66-6-66-6-66-6-66-6-| 4X na mas mabilis
E|---------------------|


G--------------------------------|
D--8-8-8-6-6-6-5-5-5-------------|
A--------------------8-8-8-6-6-8-|4X
E--------------------------------|

Repeat VERSE

Could I be so affected……………

G|-----|
D|-----|
A|-66--|12X
E|-----|

Repeat Chorus tab once!


Last Part:

You and I………………..
	                          This……..
G|---------------------------|     G|-----------------------------|
D|---------------------------|     D|-----------------------------|
A|-6-12X--3-12X--1-24X-------|2X A|-1/-6--------------------------|
E|---------------------------|     E|-----------------------------|

For comments and suggestions: text me: 09219846473
or email me at... sandy_saludez@yahoo.com
isis_male8@yahoo.com