Chicosci - Glass Is Broken Chords & Tabs

 

Glass Is Broken Chords & Tabs

Chicosci Chords & Tabs

Version: 1 Type: Tab 0 ratings
1 star 2 stars 3 stars 4 stars 5 stars
comments

Glass Is Broken Tab

SONG: Glass is Broken
BAND: Chico Sci.
ALBUM: Method of Breathing
TRANSCRIBED BY: Ron Moncada (emofreak_coc@yahoo.com)
RE-ARRANGE AND PASTE BY : Jeffrey Camposano (incustank@pinoymusika.com
website: http://justsayemo.musicdot.com ; http://cocband.musicdot.com

LEGEND:

/ or \   - slide up or down
p        - pull off
h	 - hammer on
p.m. --- - palm mute
b        - bend
n.h. --- - natural harmonics

Tuning: Tune guitar whole step down (DGCFAD) then drop d. 

Intro: 
D --3/--------
A --3/--------
F ------------
C ----00-3-2--(16x)
G ----00-3-2--
C ----00-3-2--

Verse:
Gtr.1
D --5-5-5-5-5-5-5-5-3-3-3-3-5-5-5-5-
A --6-6-6-6-5-5-5-5-3-3-3-3-5-5-5-5-
F --7-7-7-7-5-5-5-5-3-3-3-3-5-5-5-5-(4x)
C ----------------------------------
G ----------------------------------
C ----------------------------------
listen to the cd for rhythm patterns

Gtr.2
D --------------------------------------
A ------------------------------------6-
F --7-5-7-5-7-5-7---7-5-7-5-7-5-7-------
C ----------------5---------------0-5---(4x)
G --------------------------------------
C --------------------------------------
p.m.- - - - - - - - - - - - - - - - - -

Chorus:
D --3/--------|  |----------------------------------
A --3/--------|  |----------------------------------
F ------------|  |-10101010101010101010101010101010-
C ----00-3-2--|4x|-8-8-8-8-8-8-8-8-8-8-8-8-8-8-8-8--(2x)
G ----00-3-2--|  |-8-8-8-8-8-8-8-8-8-8-8-8-8-8-8-8--
C ----00-3-2--|  |-8-8-8-8-8-8-8-8-8-8-8-8-8-8-8-8--
[ Tab from: http://www.guitartabs.cc/tabs/c/chicosci/glass_is_broken_tab.html ]
D------------------------------------------------
A------------------------------------------------
F --------------10101010101010101010101010101010-
C --0--0--3--3--8-8-8-8-8-8-8-8-8-8-8-8-8-8-8-8--(4x)
G --0--0--3--3--8-8-8-8-8-8-8-8-8-8-8-8-8-8-8-8--
C --0--0--3--3--8-8-8-8-8-8-8-8-8-8-8-8-8-8-8-8--

repeat intro, verse & chorus

(2:45)
D ----------------
A ----------------
F ----------------
C ------3-2-------
G ----5-----5-3-5-
C --0-------------
p.m.- - - - - - -

(3:08)
D ----------------
A ------6-8-------
F ----7-----7-5-7-
C --0-------------
G ----------------
C ----------------
p.m.- - - - - - -

(3:18)
D --------------------------------------------------------------------
A --------------------------------------------------------------------
F -10101010101010101010101010101010--12121212121212121212121212121212-
C --8-8-8-8-8-8-8-8-8-8-8-8-8-8-8-8--10101010101010101010101010101010-
G --8-8-8-8-8-8-8-8-8-8-8-8-8-8-8-8--10101010101010101010101010101010-
C --8-8-8-8-8-8-8-8-8-8-8-8-8-8-8-8--10101010101010101010101010101010-

(3:29)
D------------------------------------------------
A------------------------------------------------
F --------------10101010101010101010101010101010-
C --0--0--3--3--8-8-8-8-8-8-8-8-8-8-8-8-8-8-8-8--
G --0--0--3--3--8-8-8-8-8-8-8-8-8-8-8-8-8-8-8-8--
C --0--0--3--3--8-8-8-8-8-8-8-8-8-8-8-8-8-8-8-8--

(3:51)
Gtr.2
D ----------------
A ----------------
F ----------------
C ------3-2-------
G ----5-----5-3-5-
C --0-------------
p.m.- - - - - - -

(4:10)
D ----------------
A ----------------
F --------3-------
C --0-2-3-3-0-2---
G --0-2-3-1-0-2---
C --0-2-3---0-2---
p.m.- - - - - - 
break
_end_
Comments