Chicosci - Dim Chords & Tabs

 

Dim Chords & Tabs

Chicosci Chords & Tabs

Version: 1 Type: Tab 0 ratings
1 star 2 stars 3 stars 4 stars 5 stars
comments

Dim Tab

Dim - Chico Science
tabbed by: joshua flores

Intro & Verse:

e|----------------------------------------------|
B|----------------------------------------------|
G|----------------------------------------------|
D|----------------------------------------------|
A|--3-3-3-3-3--7-7-7-7-7--------------5-5-5-5-5-|
E|-----------------------4-4-4-4-4-4------------|

Pre-chorus:
[ Tab from: http://www.guitartabs.cc/tabs/c/chicosci/dim_tab.html ]
e|------------------------------------------------|
B|------------------------------------------------|
G|------------------------------------------------|
D|--3-3-x-3-3---5-\-9-----------------------------|
A|--3-3-x-3-3---3-\-7--\-6------------------------|
E|--1-1-x-1-1----------\-4------------------------|
    [--3x-----------------------------------------|

chorus:

e|----------------------------------------------|
B|----------------------------------------------|
G|--5-5-x-x-4-4-x-x-----------------------------|
D|--5-5-x-x-4-4-x-x-2-2-x-x-3--5----------------|
A|--3-3-x-x-2-2-x-x-2-2-x-x-3--5----------------|
E|------------------0-0-x-x-1--3----------------|

fill #1:

e|----------------------------------------------|
B|----------------------------------------------|
G|--9b\5--9b\4--9b\5--9b\4----------------------|
D|----------------------------------------------|
A|----------------------------------------------|
E|----------------------------------------------|
Comments