Chickenfoot - Oh Yeah Chords & Tabs

 

Chickenfoot Chords & Tabs

Version: 1 Type: Tab 1 rating
1 star 2 stars 3 stars 4 stars 5 stars
comments

Oh Yeah Tab

   
Chickenfoot - "Oh Yeah"
From "Chickenfoot" Self-titled debut album
Standard Tuning, 24 fret guitar required
tabbed by jjhand

Here's Chickenfoot's first single. Its got some tricks but is probably 
easier to play than some of their other stuff. Please Rate/Comment!

Main Riff intro:
e|-------------------------|-------------------------|
B|------------8b9----------|-------------------------|
G|-7--9--9--------9--9--9--|-------------------------|
D|-------------------------|-7--7--7--5--7--9--9-9-9-|
A|-7--------7--------7-----|-7--7--7-----7--7--7-7-7-|
E|-------------------------|-------------------------|

e|--------------------------|---------------------|
B|------------8b9-----------|---------------------|
G|-7--9--9--------9--9--9-9-|---------------------|
D|-0--------0---------------|-5--7--7--5--7-----7-|
A|--------------------------|-4--4--4--4--4-------|
E|--------------------------|---------------------|

e|-------------------------|-------------------------|
B|------------8b9----------|-------------------------|
G|-7--9--9--------9--9--9--|-------------------------|
D|-------------------------|-7--7--7--5--7h9-9-------|
A|-7--------7--------7-----|-7--7--7-----7---7--10p7-|
E|-------------------------|-------------------------|

e|--------------------------|---------------0------|----------------|
B|------------8b9-----------|----------------------|----------------|
G|-7--9--9--------9--9--9-9-|----------------------|----------------|
D|-0--------0---------------|-5--7--7--5--7--------|----------5-5-5-|
A|--------------------------|-4--4--4--4--4--------|----------------|
E|--------------------------|----------------------|--------7-------|


Verse - Play Main Riff without 9th bar, but second guitar plays accents
e|----------------------|
B|----------------------|
G|-9--9--9--9----9--9-9-| <- listen to song for accent beats
D|----------------------|
A|----------------------|
E|----------------------|



Prechorus:
e|------------------------|---------------------|------------------------|
B|------------------------|---------------------|------------------------|
G|-5--5--5--5--5--5--4--2-|-(2)-------2---------|-5--5--5--5--5--5--7----|
D|-5--5--5--5--5--5--4--2-|-(2)-------2---------|-5--5--5--5--5--5--7----|
A|-3--3--3--3--3--3--2--0-|-(0)-------0---------|-3--3--3--3--3--3--5----|
E|------------------------|-------3qb-----3qb-0-|------------------------|

e|----------------------|
B|----------------------|
G|----2---2-------------|
D|----------------------|
A|-/4---2---0-----------|
E|--------------3---2---|


Chorus:
play 2x
e|------0---------3----|-----------------------||
B|------0---------0----|------2----3--3--3--2--||
G|------1---------0----|------2----2--2--2--2--||
D|------2---------0----|-2----2----------------||
A|------2---------2----|-0----0----------------||
E|-0---------3---------|-----------------------||

end with:                                        
e|------0---------3----|-----------------------|-----------------|------------------|
B|------0---------0----|------2----3--3--------|-----------------|------------------|
G|------1---------0----|------2----2--2--------|-------------3---|-----2------------|
D|------2---------0----|-2----2----------------|-----------2---2-|---1---1---1------|
A|------2---------2----|-0----0----------------|-7-6-5-4-3-------|-2-------2---/10\-|
E|-0---------3---------|-----------------/12-0-|-----------------|------------------|



Verse 2 - same as first Verse

Play Prechorus again

Play Chorus again



Break (2:03) - play 2x
e|-----------------|-----------------|-----------------|-----------------|
B|-----------------|-----------------|-----------------|-----------------|
G|-----3-----3-----|-----4-----3---3-|-----0-----0---0-|-----0-----------|
D|---2-----2---2---|---2-----2-------|---2-----2-------|---4-----4--2----|
A|-----------------|-----------------|-----------------|-----------------|
E|-2-----2-------2-|-3-----2-----2---|-0-----0-----0---|-0---------------|


Intense part 

play 4x                                       play 4x
e|-------------------------------------|    |------------------------------------|
B|-------------------------------------|    |------8qb---8qb----8qb---8qb---8qb--|
G|-------------------------------------|    |------7qb---7qb----7qb---7qb---7qb--|
D|-------------------------------------|    |------------------------------------|
A|-------------------------------------|    |------------------------------------|
E|-0-0-3qb--0-3qb--0-3qb--0-3qb--0-3qb-|    |-0-0------0------0-----0-----0------|

[ Tab from: http://www.guitartabs.cc/tabs/c/chickenfoot/oh_yeah_tab.html ]
Solo Rhythm - Play once then repeat with solo
e|----------|------------|------------|-----------|------------|------------|
B|----------|------------|------------|-----------|------------|------------|
G|----------|------------|------------|-----------|-6----------|-5----------|
D|-9--------|-10---------|-8----------|-9---------|-7----------|-7----------|
A|-7--------|-7----------|-7----------|-7---------|-7----------|-7----------|
E|-0--------|-0----------|-0----------|-0---------|-5----------|-5----------|

e|--------------|----------|
B|--------------|----------|
G|-4------------|----------|
D|-5------------|----------|
A|-7------------|-2--------|
E|-0------------|-0--------|


Solo
e|-15------------------------|----------------------------|-------------------------------|
B|-15------------------------|----------------------------|-------------------------------|
G|---------------------------|----------------------------|---------------------------x---|
D|----------------14---12h14-|-14b17r14-------------------|-------------------------------|
A|---------------------------|-----------10---12p10-12p10-|-12b13~--(b13)\----------------|
E|----------x\--0------------|----------------------------|----------------12-15p12-15----|

e|-----------12-----------------------|----------20b22-----17-|-22b24~~---22-24~--|
B|-15b17--------15-----------------17-|-20b22-----------------|---------24--------|
G|-----------------14b16-12~-----16---|-----------------------|-------------------|
D|-----------------------------17-----|-----------------------|-------------------|
A|------------------------------------|-----------------------|-------------------|
E|------------------------------------|-----------------------|-------------------|

e|-24b26b27~~---0-14b15----------------|----------------------------------|
B|------------------------17p15--15-17-|----------------------------------|
G|-----------------------------16------|-14b15r14p12----------------------|
D|-------------------------------------|------------14-12-----------------|
A|-------------------------------------|-----------------14-10h12p10~-----|
E|-------------------------------------|------------------------------12\-|

solo ending
e|-----------------|-------------------|------------------|-----------------|
B|-----------------|-------------------|------------------|-----------------|
G|-/15~------------|-16~---15~---16p15-|-12~--------------|-rest------------|
D|-----------------|-------------------|------------------|-----------------|
A|-----------------|-------------------|------------------|-----------------|
E|-----------------|-------------------|------------------|-----------------|
 |
 |
e|-----------------|-------------------|-----------------|-----------------|
B|-----------------|-------------------|-----------------|-----------------|
G|-----3-----3-----|-----4-----3----3--|-----------------|-rest------------|
D|---2-----2---2---|---2-----2---------|-----------------|-----------------|
A|-----------------|-------------------|-----------------|-----------------|
E|-2-----2-------2-|-3-----2------2----|-0---------------|-----------------|



Back to main riff/verse

Before Chorus, use the intro ending:
e|------------------|
B|------------------|
G|------------------|
D|-rest-------5-5-5-|
A|------------------|
E|----------7-------|


Play Chorus again


Repeat Chorus with lead part:
e|-----------------------|------------12------------|-----------------------|
B|-15b17~-----15b17~-----|-(b17)--------------------|-15b17~-----15b17~-----|
G|-----------------------|--------------14b15r14-12-|-----------------------|
D|-----------------------|--------------------------|-----------------------|
A|-----------------------|--------------------------|-----------------------|
E|-----------------------|--------------------------|-----------------------|

e|------------12/19----|-------17b19~v~-----|-(b19)------------|
B|-(b17)---------------|-------17b20~v~-----|-(b20)------------| note: ~v~ for 
G|---------------------|--------------------|------------------| trem bar vibrato
D|---------------------|--------------------|------------------|
A|---------------------|--------------------|------------------|
E|---------------------|--------------------|------------------|


Ending - play 2x
e|---------------------------------------------|---------------------------|
B|-17----16----15----14----13~--------------15-|-12------------------------|
G|-19b21-18b20-17b19-16b18-15b17~--------------|-14b16---------------------|
D|---------------------------------------------|---------------------------|
A|---------------------------------------------|---------------------------|
E|---------------------------------------------|---------------------------|


Play Intense part, then end on this:

   repeated
e|-------------------------------------|-3------|
B|-------------------------------------|--------|
G|-------------------------------------|--------|
D|-------------------------------------|--------|
A|-------------------------------------|--------|
E|-0-0-3qb--0-3qb--0-3qb--0-3qb--0-3qb-|--------|



key
| /  slide up
| \  slide down
| h  hammer-on
| p  pull-off
| b  bend note
| r  release bend
| qb quarter bend (bluesy sounding slight bend)
| ~  vibrato
| ~v~ trem bar vibrato  
| x  Mute note
Comments