Chicago - 25 Or 6 To 4 Chords & Tabs

 

25 Or 6 To 4 Chords & Tabs

Chicago Chords & Tabs

Version: 4 Type: Bass Tab

25 Or 6 To 4 Bass Tab

  Intro/Main Riff
---||-------------------------------------------------------||
-4-||-------------------------------------------------------||
-4-||-------------------------------------------------------||
---||5-5-5-5-5\--|3-3-3-3-3\--|2-2-2-2-2\--|1-1-1-1-0-0-0-0-||

  Verses 1 + 2
--||----------|----------|----------|-------------||
-4||----------|----------|----------|-------------||
-4||----------|----------|----------|-------------||
--||5-5--5-5--|3-3--3-3--|2-2--2-2--|1-1--1-0-0--0||

  Chorus (Not exact, but it works.)
--||-------|------|----------|----|-------|----------------|---------------||
-2||-------|------|--2--0----|----|-------|----------------|---------------||
-2||----0--|--0-2-3-3-3--3---|---2|-------|----------------|---------------||
--||1--1-1-3-1----|-------1--|3-3-3-5-3-0-|1-1-1-1-1-1-1-1-|1-1-1-1-1-1-1-3||
[ Tab from: http://www.guitartabs.cc/tabs/c/chicago/25_or_6_to_4_btab_ver_4.html ]
  During Guitar Solo
--||----------------|----------------|----------------|---------------||
-4||----------------|----------------|----------------|---------------||
-4||----------------|----------------|----------------|---------------||
--||5-5-5-5-5-5-5-0-|3-3-3-3-3-3-5-0-|2-2-2-2-2-2-5-0-|1-1-1-1-0-0-0-0||

  Verse 3
--||-----------|-----------|-----------|-------------||
-4||-----------|-----------|-----------|-------------||
-4||-----------|-----------|-----------|-------------||
--||5-5--5-5--0|3-3--3-3--0|2-2--2-2--0|1-1--1-0-0--0||

  Outro
--||----------------|----------------|----------------|----------------|---||
-4||----------------|----------------|----------------|----------------|---||
-4||----------------|----------------|2-2-2-2-2-2-2-2-|1-1-1-1-1-1-1-1-|2--||
--||5-5-5-5-5-5-5-5-|3-3-3-3-3-3-3-3-|----------------|----------------|---||