Chevelle - Wonder Whats Next Chords & Tabs

 

Wonder Whats Next Chords & Tabs

Chevelle Chords & Tabs

Version: 1 Type: Bass Tab 0 ratings
1 star 2 stars 3 stars 4 stars 5 stars
comments

Wonder Whats Next Bass Tab

   
Dropped D & 1 1/2 steps down 



INTRO RIFF I
C#---------------------------------
G#---------------------------------
E ---------------------------------    
B ---------------------------------
F#---------------------------------
B -0-5-6-0-6-5-0-5-0-5-6-0-6-5-0-3- (PALM MUTE)

INTRO RIFF II
C#---------------------------------
G#---------------------------------
E ---------------------------------
B -0-5-6-0-6-5-0-5-0-5-6-0-6-5-0-3-
F#-0-5-6-0-6-5-0-5-0-5-6-0-6-5-0-3-
B -0-5-6-0-6-5-0-5-0-5-6-0-6-5-0-3-

VERSE
C#---------------------------------
G#---------------------------------
E ---------------------------------    
B -33333-4-3-0-3-------------------
F#-33333-4-3-0-3-------------------
B -33333-4-3-0-3-------------------

It sometimes feels like a burdon
I want to succeed
Is this a good quality
I wonder what's next

C#---------------------------------
G#---------------------------------
E ---------------------------------    
B -00--x-x--x----------------------
F#-00--x-x--x----------------------
B -00--x-x--x----------------------
NOTHING


INTRO RIFF II

VERSE:
[ Tab from: http://www.guitartabs.cc/tabs/c/chevelle/wonder_whats_next_btab.html ]
The more and more it's an animal
Waiting to be seen
Face with someone's failures
A sickening sight indeed, indeed, indeed

C#---------------------------------
G#---------------------------------
E ---------------------------------    
B -00--x-x--x-x--x-x---------------
F#-00--x-x--x-x--x-x---------------
B -00--x-x--x-x--x-x---------------

INTRO RIFF I

(SAID)In the beginning it seems tha noone thinks beyond having fun
Which is why you write music in the first place
Always moving, refining, pushing foward the art which one's created,
Looking to the right time to share it,
And then the headaches of criticism 
Senior advisors and unseen people above
Twisting distorting that hich we love
And then the never ending problems with money
Holding me back
Preventing progress
I thought you only started cause it was fun

Verse RIFF

We played that blaming game
Yes i mind
It's not your turn

INTRO RIFF II

I WONDER WHAT'S NEXT
I WONDER WHAT'S NEXT

VERSE RIFF

We played that blaming game
Yes i mind its not your turn



ENDS WITH:
C#---------------------------------
G#---------------------------------
E ---------------------------------    
B -00------------------------------
F#-00------------------------------
B -00------------------------------ 




Comments