Chevelle - Vitamin R Leading Us Along Chords & Tabs

 

Vitamin R Leading Us Along Chords & Tabs

Chevelle Chords & Tabs

Version: 9 Type: Tab 0 ratings
1 star 2 stars 3 stars 4 stars 5 stars
comments

Vitamin R Leading Us Along Tab

   
-------------------------------------------------------------------------------
			     Vitamin R (Leading Us Along) - Chevelle		
-------------------------------------------------------------------------------
Tabbed by:  Mike Silva
Email:Truplaya@nycap.rr.com

I just got Chevelles new CD, THis Type Of THinking Could Do Us In, and It is very good.  
I read the other tabs of Vitamin R and they all sucked.  I'm pretty sure mine is nearly
100% correct.

Tuning: B F# B E G# C#

Intro- 0:00-0:08 2 times

C#|---------------------------------------------------------------------------|
G#|---------------------------------------------------------------------------|
E |--9-9-9-9-9-9-9-9-9------7-7-7-7-7-7-7-7-7---------------------------------|
B |--0-0-0-0-0-0-0-0-0------0-0-0-0-0-0-0-0-0---------------------------------|
F#|---------------------------------------------------------------------------|
B |---------------------------------------------------------------------------|

Verse-0:08-0:38  4 times

C#|---------------------------------------------------------------------------|
G#|---------------------------------------------------------------------------|
E |-10-10-10-10-10-10-10----9-9-9-9-9-9-9-9-9-9-------------------------------|
B |-0-0-0-0-0-0-0-0-0-0-----0-0-0-0-0-0-0-0-0-0-------------------------------|
F#|---------------------------------------------------------------------------|
B |---------------------------------------------------------------------------|
    
 P.M * * * * * * * * * *     * * * * * * * * * * 

C#|---------------------------------------------------------------------------|
G#|---------------------------------------------------------------------------|
E |--10-10-10-10-10-10-10-10------9-9-9-9-9-9-9-9-9-9-------------------------|
B |--8-8-8-8-8-8-8-8-8-8-8--------8-8-8-8-8-8-8-8-8-8-------------------------|
F#|--8-8-8-8-8-8-8-8-8-8-8--------8-8-8-8-8-8-8-8-8-8-------------------------|
B |--8-8-8-8-8-8-8-8-8-8-8--------8-8-8-8-8-8-8-8-8-8-------------------------|
[ Tab from: http://www.guitartabs.cc/tabs/c/chevelle/vitamin_r_leading_us_along_tab_ver_9.html ]
P.M  * * * * * * * * * * *        * * * * * * * * * * 
  
Pre-chorus-0:38-0:53 Gradually release Palm mute
  
C#|---------------------------------------------------------------------------|
G#|---------------------------------------------------------------------------|
E |---------------------------------------------------------------------------|
B |---------------------------------------------------------------------------|
F#|---------------------------------------------------------------------------|
B |0-0-0-0-0-0-0-0-0-0-0-0-0-0-0-0-0-0-0-0-0-0-0-0-3-3-3-3-3-3-3-3-3-3-3-3-3-3|

P.M  * * * * * * * * * * * * * * * * * * * * * * * * * * * * * * * * * * * * *

C#|---------------------------------------------------------------------------|
G#|---------------------------------------------------------------------------|
E |---------------------------------------------------------------------------|
B |---------------------------------------------------------------------------|
F#|---------------------------------------------------------------------------|
B |3-3-3-3-3-3-3-3-3-3--5--5--5--5--5--5--5--5--5--5--5--5--3--3--3--3--3--3--|

P.M * * * * * * * * * *  *  *  *  *  *  *  *  *  *  *  *  *  *  *  *  *  *   

C#|---------------------------------------------------------------------------|
G#|---------------------------------------------------------------------------|
E |---------------------------------------------------------------------------|
B |---------------------------------------------------------------------------|
F#|---------------------------------------------------------------------------|
B |3--3--3--3--3--3-----------------------------------------------------------|

P.M *  *  *  *  *  

Chorus-0:53-1:08
Note thats the 9's and 6's are natural harmonics...Thanks will.

C#|--------9-9-9----------------------------6-6-6-----------------------------|
G#|--------9-9-9----------------------------6-6-6-----------------------------|
e |--------9-9-9----------------------------6-6-6-----------------------------|
B |-8-8-8--------8-8-8--8/10-10-10\-5-5-5----------5-5-5-5\3-3-3--------------|
F#|-8-8-8--------8-8-8--8/10-10-10\-5-5-5----------5-5-5-5\3-3-3--------------|
B |-8-8-8--------8-8-8--8/10-10-10\-5-5-5----------5-5-5-5\3-3-3--------------|

Bridge-2:16

C#|---------------------------------------------------------------------------|
G#|---------------------------------------------------------------------------|
E |-5-5-5-5-5---7-7-7-7-7-----------------------------------------------------|
B |-3-3-3-3-3---5-5-5-5-5-----7-------7------7-------7------------------------|
F#|-3-3-3-3-3---5-5-5-5-5-----5-------5------5-------5------------------------|
B |-3-3-3-3-3---5-5-5-5-5-------0--0-----0--0---0--0--0--0--------------------|


| /  slide up
| \  slide down
===============================================================================
Comments