Chevelle - Vitamin R Leading Us Along Chords & Tabs

 

Vitamin R Leading Us Along Chords & Tabs

Chevelle Chords & Tabs

Version: 6 Type: Tab 0 ratings
1 star 2 stars 3 stars 4 stars 5 stars
comments

Vitamin R Leading Us Along Tab

   
Band: Chevelle
Song: Vitamin R
By:Mike


Awesome song off of chevelle's new cd "this type of thinking could do us in"
Tuning: Drop D (D A D G B E)


Intro:
E|------------------------------------------------------------------------|
B|------------------------------------------------------------------------|
G|-----------------------------------------------------------{2x}---------|
D|-11--11-11-11-11--11--11-11-11-11---9--9-9-9-9--9--9-9-9-9--------------|
A|-11--11-11-11-11--11--11-11-11-11---9--9-9-9-9--9--9-9-9-9--------------|
D|-11--11-11-11-11--11--11-11-11-11---9--9-9-9-9--9--9-9-9-9--------------|


Verse: Palm mute
E|------------------------------------------------------------------------|
B|------------------------------------------------------------------{8x}--|
G|------------------------------------------------------------------------|
D|-12--12-12-12-12--12--12-12-12-12---11--11-11-11-11--11--11-11-11-11----|
A|-12--12-12-12-12--12--12-12-12-12---11--11-11-11-11--11--11-11-11-11----|
D|-12--12-12-12-12--12--12-12-12-12---11--11-11-11-11--11--11-11-11-11----|
    


Pre Chourus: Palm mute  Played fast over and over until chourus
E|--------------------------|
B|--------------------------|
G|--------------------------|
D|-0-0-0-0-0-0-0-0----------|
A|-0-0-0-0-0-0-0-0----------|
D|-0-0-0-0-0-0-0-0----------|



Chourus:
E|----------------------------------------------------------|
B|----------------------------------------------------{2x}--|
G|-------8-8-8-8--------------------8-8-8-8-----------------|
D|-6---6-6-6-6-6-6---6--8--8--3---3-6-6-6-6-3---3-1-1-------|
A|-6---6---------6---6--8--8--3---3---------3---3-1-1-------|
D|-6---6---------6---6--8--8--3---3-------------3-1-1-------|



E|------------------------------------------------------------------------|
B|------------------------------------------------------------------------|
G|-----------------------------------------------------------{2x}---------|
D|-11--11-11-11-11--11--11-11-11-11---9--9-9-9-9--9--9-9-9-9--------------|
A|-11--11-11-11-11--11--11-11-11-11---9--9-9-9-9--9--9-9-9-9--------------|
D|-11--11-11-11-11--11--11-11-11-11---9--9-9-9-9--9--9-9-9-9--------------|

[ Tab from: http://www.guitartabs.cc/tabs/c/chevelle/vitamin_r_leading_us_along_tab_ver_6.html ]
Verse: Palm mute
E|------------------------------------------------------------------------|
B|------------------------------------------------------------------{8x}--|
G|------------------------------------------------------------------------|
D|-12--12-12-12-12--12--12-12-12-12---11--11-11-11-11--11--11-11-11-11----|
A|-12--12-12-12-12--12--12-12-12-12---11--11-11-11-11--11--11-11-11-11----|
D|-12--12-12-12-12--12--12-12-12-12---11--11-11-11-11--11--11-11-11-11----|


Pre Chourus: Palm mute  Played fast over and over until chourus
E|--------------------------|
B|--------------------------|
G|--------------------------|
D|-0-0-0-0-0-0-0-0----------|
A|-0-0-0-0-0-0-0-0----------|
D|-0-0-0-0-0-0-0-0----------|


Chourus:
E|----------------------------------------------------------|
B|----------------------------------------------------{2x}--|
G|-------8-8-8-8--------------------8-8-8-8-----------------|
D|-6---6-6-6-6-6-6---6--8--8--3---3-6-6-6-6-3---3-1-1-------|
A|-6---6---------6---6--8--8--3---3---------3---3-1-1-------|
D|-6---6---------6---6--8--8--3---3-------------3-1-1-------|



Bridge:
E|---------------------------------------------------|
B|-------------------------------------------{3x}----|
G|---------------------------------------------------|
D|-5--5--5--2--2--2--9-x-x-9-x-x-9-x-x-9-x-x---------|
A|-5--5--5--2--2--2--9-x-x-9-x-x-9-x-x-9-x-x---------|
D|-5--5--5--2--2--2--9-x-x-9-x-x-9-x-x-9-x-x---------|


E|--------------------|
B|--------------------|
G|--------------------|
D|-5--5--5--2--2--2---|
A|-5--5--5--2--2--2---|
D|-5--5--5--2--2--2---|



E|------------------------------------------------------------------------|
B|------------------------------------------------------------------------|
G|-----------------------------------------------------------{2x}---------|
D|-11--11-11-11-11--11--11-11-11-11---9--9-9-9-9--9--9-9-9-9--------------|
A|-11--11-11-11-11--11--11-11-11-11---9--9-9-9-9--9--9-9-9-9--------------|
D|-11--11-11-11-11--11--11-11-11-11---9--9-9-9-9--9--9-9-9-9--------------|

Chourus: Played 6 times here
E|----------------------------------------------------------|
B|----------------------------------------------------{6x}--|
G|-------8-8-8-8--------------------8-8-8-8-----------------|
D|-6---6-6-6-6-6-6---6--8--8--3---3-6-6-6-6-3---3-1-1-------|
A|-6---6---------6---6--8--8--3---3---------3---3-1-1-------|
D|-6---6---------6---6--8--8--3---3-------------3-1-1-------|


Outro: Played 4 times, slowly fading out
E|------------------------------------------------------------------------|
B|------------------------------------------------------------------------|
G|-----------------------------------------------------------{2x}---------|
D|-11--11-11-11-11--11--11-11-11-11---9--9-9-9-9--9--9-9-9-9--------------|
A|-11--11-11-11-11--11--11-11-11-11---9--9-9-9-9--9--9-9-9-9--------------|
D|-11--11-11-11-11--11--11-11-11-11---9--9-9-9-9--9--9-9-9-9--------------|
Comments