Chevelle - Vitamin R Leading Us Along Chords & Tabs

 

Vitamin R Leading Us Along Chords & Tabs

Chevelle Chords & Tabs

Version: 11 Type: Tab 0 ratings
1 star 2 stars 3 stars 4 stars 5 stars
comments

Vitamin R Leading Us Along Tab

   
BAnd- Chevelle
Song- Vitamin R Leading Us Along

  D5
      0 0 0 x x x

Gtr I (B F# B E G# C#) - 'Pete Distortion'
Gtr II (B F# B E G# C#) - 'Pete Clean'
Gtr III (B F# B E G# C#) - 'Pete Distortion II'

   Intro
    Moderate Rock Q.=60
    Dsus2                   D5
   6/8
    Gtrs I, II
     E  S S S S E S S S S    E  S S S S E S S S S
||------------------------|------------------------||
||o-----------------------|-----------------------o||
||---9--9-9-9-9-9-9-9-9-9-|--7--7-7-7-7-7-7-7-7-7--||
||---0--0-0-0-0-0-0-0-0-0-|--0--0-0-0-0-0-0-0-0-0--||
||o--0--0-0-0-0-0-0-0-0-0-|--0--0-0-0-0-0-0-0-0-0-o||
||--(0)-------------------|-(0)--------------------||
     H.                     +H.


   Verse
    Dm/A                            Dsus2/A
    Gtr I
     PM-----------------------------------------------|
     E  S  S  S  S  E  S  S  S  S   E S S S S E S S S S
||--------------------------------|---------------------|
||o-------------------------------|---------------------|
||--10-10-10-10-10-10-10-10-10-10-|-9-9-9-9-9-9-9-9-9-9-|
||---0--0--0--0--0--0--0--0--0--0-|-0-0-0-0-0-0-0-0-0-0-|
||o--0----------------------------|-0-------------------|
||--------------------------------|---------------------|


  Dm/A                            Dsus2/A       D
   PM-----------------------------------------------|
   E  S  S  S  S  E  S  S  S  S   E S S S S E S S S S
|-------------------------------|---------------------|
|-------------------------------|---------------------|
|-10-10-10-10-10-10-10-10-10-10-|-9-9-9-9-9-9-9-7-7-7-|
|--0--0--0--0--0--0--0--0--0--0-|-0-0-0-0-0-0-0-0-0-0-|
|--0----------------------------|-0-------------------|
|-------------------------------|---------------------|


  Bb5/F                           Fmaj7sus4
   PM-----------------------------------------------|
   E  S  S  S  S  E  S  S  S  S   E S S S S E S S S S
|-------------------------------|---------------------|
|-------------------------------|---------------------|
|-10-10-10-10-10-10-10-10-10-10-|-9-9-9-9-9-9-9-9-9-9-|
|--8--8--8--8--8--8--8--8--8--8-|-8-8-8-8-8-8-8-8-8-8-|
|--8--------------8--------8----|-8---------8-----8---|
|-------------------------------|---------------------|


  Bb5/F                           Fmaj7sus4
   PM-----------------------------------------------|
   E  S  S  S  S  E  S  S  S  S   E S S S S E S S S S
|-------------------------------|----------------------||
|-------------------------------|---------------------o||
|-10-10-10-10-10-10-10-10-10-10-|-9-9-9-9-9-9-9-9-9-9--||
|--8--8--8--8--8--8--8--8--8--8-|-8-8-8-8-8-8-8-8-8-8--||
|--8--------------8--------8----|-8---------8-----8---o||
|-------------------------------|----------------------||


   Pre-Chorus
    $
    D
    PM----------------------------------------------|
    S S S S S S S S S S S S   S S S S S S S S S S S S
||--------------------------|-------------------------|
||o-------------------------|-------------------------|
||--------------------------|-------------------------|
||--------------------------|-------------------------|
||o-------------------------|-------------------------|
||--0-0-0-0-0-0-0-0-0-0-0-0-|-0-0-0-0-0-0-0-0-0-0-0-0-|


  1.
  F
  PM----------------------------------------------|
  S S S S S S S S S S S S   S S S S S S S S S S S S
|-------------------------|--------------------------||
|-------------------------|-------------------------o||
|-------------------------|--------------------------||
|-------------------------|--------------------------||
|-------------------------|-------------------------o||
|-3-3-3-3-3-3-3-3-3-3-3-3-|-3-3-3-3-3-3-3-3-3-3-3-3--||


  2.
  G                         F
  PM----------------------------|
  S S S S S S S S S S S S   S S S S S S S S S S S S
|-------------------------|-------------------------||
|-------------------------|-------------------------||
|-------------------------|-------------------------||
|-------------------------|-------------------------||
|-------------------------|-------------------------||
|-5-5-5-5-5-5-5-5-5-5-5-5-|-3-3-3-3-3-3-3-3-3-3-3-3-||


   Chorus
    Bb5        E5/B      Bb5      C5           D5
    Gtrs I, III
    E. S S S E S S S S   E. S S S   S  S  S  S S S
||---------------------|---------------------------|
||o--------------------|---------------------------|
||-------------9-9-9-9-|---------------------------|
||--8--8-8-8-8-9-9-9-9-|-8--8-8-8-/10-10-10-10-0-0-|
||o-8--8-8-8-8---------|-8--8-8-8-/10-10-10-10-0-0-|
||--8--8-8-8-8---------|-8--8-8-8-/10-10-10-10-0-0-|


                                    To Coda
  G5         E5/B      G5        F5
  E. S S S E S S S S   E S S S S S S S S S S
|--------------------|------------------------||
|--------------------|-----------------------o||
|------------9-9-9-9-|------------------------||
|-5--5-5-5-5-9-9-9-9-|-5-5-5-5-5s3-3-3-3-3-3--||
|-5--5-5-5-5---------|-5-5-5-5-5s3-3-3-3-3-3-o||
|-5--5-5-5-5---------|-5-5-5-5-5s3-3-3-3-3-3--||


   Pre-Verse
    D5
    Gtr III
     H.                     +H.
     |                       |
     /                       /

    Gtrs I, II
     E  S S S S E S S S S    E  S S S S E S S S S
||------------------------|------------------------||
||o-----------------------|-----------------------o||
||---9--9-9-9-9-9-9-9-9-9-|--7--7-7-7-7-7-7-7-7-7--||
||---0--0-0-0-0-0-0-0-0-0-|--0--0-0-0-0-0-0-0-0-0--||
||o--0--0-0-0-0-0-0-0-0-0-|--0--0-0-0-0-0-0-0-0-0-o||
||--(0)-------------------|-(0)--------------------||
     H.                     +H.


   Verse
    Dm/A                            Dsus2/A
    Gtr I
     PM-----------------------------------------------|
     E  S  S  S  S  E  S  S  S  S   E S S S S E S S S S
||--------------------------------|---------------------|
||o-------------------------------|---------------------|
||--10-10-10-10-10-10-10-10-10-10-|-9-9-9-9-9-9-9-9-9-9-|
||---0--0--0--0--0--0--0--0--0--0-|-0-0-0-0-0-0-0-0-0-0-|
||o--0----------------------------|-0-------------------|
||--------------------------------|---------------------|


  Dm/A                            Dsus2/A       D
   PM-----------------------------------------------|
   E  S  S  S  S  E  S  S  S  S   E S S S S E S S S S
|-------------------------------|---------------------|
|-------------------------------|---------------------|
|-10-10-10-10-10-10-10-10-10-10-|-9-9-9-9-9-9-9-7-7-7-|
|--0--0--0--0--0--0--0--0--0--0-|-0-0-0-0-0-0-0-0-0-0-|
|--0----------------------------|-0-------------------|
|-------------------------------|---------------------|

[ Tab from: http://www.guitartabs.cc/tabs/c/chevelle/vitamin_r_leading_us_along_tab_ver_11.html ]
  Bb5/F                           Fmaj7sus4
   PM-----------------------------------------------|
   E  S  S  S  S  E  S  S  S  S   E S S S S E S S S S
|-------------------------------|---------------------|
|-------------------------------|---------------------|
|-10-10-10-10-10-10-10-10-10-10-|-9-9-9-9-9-9-9-9-9-9-|
|--8--8--8--8--8--8--8--8--8--8-|-8-8-8-8-8-8-8-8-8-8-|
|--8--------------8--------8----|-8---------8-----8---|
|-------------------------------|---------------------|


                                        D.S. al Coda
  Bb5/F                           Fmaj7sus4
   PM-----------------------------------------------|
   E  S  S  S  S  E  S  S  S  S   E S S S S E S S S S
|-------------------------------|----------------------||
|-------------------------------|---------------------o||
|-10-10-10-10-10-10-10-10-10-10-|-9-9-9-9-9-9-9-9-9-9--||
|--8--8--8--8--8--8--8--8--8--8-|-8-8-8-8-8-8-8-8-8-8--||
|--8--------------8--------8----|-8---------8-----8---o||
|-------------------------------|----------------------||


   Breakdown
    Q.=62
    &
    F5         D5  G5         D5
    Gtr I
                                    PM|   PM|     PM|   PM|
    Q  E +E  E E   Q  E +E  E E   E E E E E E   E E E E E E
||---------------|--------------|-------------|---------------||
||o--------------|--------------|-------------|--------------o||
||--5--5-(5)-5---|-7--7-(7)-7---|-7-----7-----|-7-----7-------||
||--3--3-(3)-3-0-|-5--5-(5)-5-0-|-7-----7-----|-7-----7-------||
||o-3--3-(3)-3-0-|-5--5-(5)-5-0-|-5-0-0-5-0-0-|-5-0-0-5-0-0--o||
||--3--3-(3)-3-0-|-5--5-(5)-5-0-|---0-0---0-0-|---0-0---0-0---||


                                     1.
    Bb5            D5  G5         D5
                                        PM|   PM|     PM|   PM|
     Q   E  +E   E E   Q  E +E  E E   E E E E E E   E E E E E E
||-------------------|--------------|-------------|---------------||
||o------------------|--------------|-------------|--------------o||
||--10--10-(10)-10---|-7--7-(7)-7---|-7-----7-----|-7-----7-------||
||---8---8--(8)--8-0-|-5--5-(5)-5-0-|-7-----7-----|-7-----7-------||
||o--8---8--(8)--8-0-|-5--5-(5)-5-0-|-5-0-0-5-0-0-|-5-0-0-5-0-0--o||
||---8---8--(8)--8-0-|-5--5-(5)-5-0-|---0-0---0-0-|---0-0---0-0---||


    2.=60
    D5
    Gtr III
     H.                     +H.
     |                       |
     /                       /

    Gtrs I, II
     E  S S S S E S S S S    E  S S S S E S S S S
||------------------------|------------------------||
||o-----------------------|-----------------------o||
||---9--9-9-9-9-9-9-9-9-9-|--7--7-7-7-7-7-7-7-7-7--||
||---0--0-0-0-0-0-0-0-0-0-|--0--0-0-0-0-0-0-0-0-0--||
||o--0--0-0-0-0-0-0-0-0-0-|--0--0-0-0-0-0-0-0-0-0-o||
||--(0)-------------------|-(0)--------------------||
     H.                     +H.


   Out-Chorus
    Bb5        E5/B      Bb5      C5           D5
    Gtrs I, III
    E. S S S E S S S S   E. S S S   S  S  S  S S S
||---------------------|---------------------------|
||o--------------------|---------------------------|
||-------------9-9-9-9-|---------------------------|
||--8--8-8-8-8-9-9-9-9-|-8--8-8-8-/10-10-10-10-0-0-|
||o-8--8-8-8-8---------|-8--8-8-8-/10-10-10-10-0-0-|
||--8--8-8-8-8---------|-8--8-8-8-/10-10-10-10-0-0-|


  G5         E5/B      G5        F5
  E. S S S E S S S S   E S S S S S S S S S S  4x
|--------------------|------------------------||
|--------------------|-----------------------o||
|------------9-9-9-9-|------------------------||
|-5--5-5-5-5-9-9-9-9-|-5-5-5-5-5s3-3-3-3-3-3--||
|-5--5-5-5-5---------|-5-5-5-5-5s3-3-3-3-3-3-o||
|-5--5-5-5-5---------|-5-5-5-5-5s3-3-3-3-3-3--||


  D5
  Gtr III
   H.                     +H.
   |                       |
   /                       /

  Gtrs I, II
   E  S S S S E S S S S    E  S S S S E S S S S
|-----------------------|-----------------------|
|-----------------------|-----------------------|
|--9--9-9-9-9-9-9-9-9-9-|--7--7-7-7-7-7-7-7-7-7-|
|--0--0-0-0-0-0-0-0-0-0-|--0--0-0-0-0-0-0-0-0-0-|
|--0--0-0-0-0-0-0-0-0-0-|--0--0-0-0-0-0-0-0-0-0-|
|-(0)-------------------|-(0)-------------------|
   H.                     +H.


    +H.                     +H.
     |                       |
     /                       /

     E  S S S S E S S S S    E  S S S S E S S S S  5x
||------------------------|------------------------||
||o-----------------------|-----------------------o||
||---9--9-9-9-9-9-9-9-9-9-|--7--7-7-7-7-7-7-7-7-7--||
||---0--0-0-0-0-0-0-0-0-0-|--0--0-0-0-0-0-0-0-0-0--||
||o--0--0-0-0-0-0-0-0-0-0-|--0--0-0-0-0-0-0-0-0-0-o||
||--(0)-------------------|-(0)--------------------||
     H.                     +H.


Duration Legend
---------------
W - whole; H - half; Q - quarter; E - 8th; S - 16th; T - 32nd; X - 64th; a - acciaccatura
+ - note tied to previous; . - note dotted; .. - note double dotted
Uncapitalized letters represent notes that are staccato (1/2 duration)
Irregular groupings are notated above the duration line
Duration letters will always appear directly above the note/fret number it represents the
duration for.  Duration letters with no fret number below them represent rests.  Multi-
bar rests are notated in the form Wxn, where n is the number of bars to rest for.  Low
melody durations appear below the staff

Tablature Legend
----------------
 h   - hammer-on
 p   - pull-off
 b   - bend
 pb  - pre-bend
 r   - bend release (if no number after the r, then release immediately)
 /\  - slide into or out of (from/to "nowhere")
 s   - legato slide
 S   - shift slide
  - natural harmonic
[n]  - artificial harmonic
n(n) - tapped harmonic
 ~   - vibrato
 tr  - trill
 T   - tap
 TP  - trem. picking
 PM  - palm muting
\n/  - tremolo bar dip; n = amount to dip
 \n  - tremolo bar down
 n/  - tremolo bar up
/n\  - tremolo bar inverted dip
 =   - hold bend; also acts as connecting device for hammers/pulls
 <>  - volume swell (louder/softer)
 x   - on rhythm slash represents muted slash
 o   - on rhythm slash represents single note slash

Misc Legend
-----------
 |  - bar
||  - double bar
||o - repeat start
o|| - repeat end
*|  - double bar (ending)
 :  - bar (freetime)
 $  - Segno
 &  - Coda
Tempo markers -  = BPM(8/16=s8/s16), where s8 = swing 8ths, s16 = swing 16ths


***************************************************************************************
* Generated using Power Tab Editor by Brad Larsen - http://powertab.guitarnetwork.org *
***************************************************************************************
Comments