Chevelle - Vitamin R Leading Us Along Chords & Tabs

 

Vitamin R Leading Us Along Chords & Tabs

Chevelle Chords & Tabs

Version: 1 Type: Tab 1 rating
1 star 2 stars 3 stars 4 stars 5 stars
comments

Vitamin R Leading Us Along Tab

   
"Vitamin R (Leading Us Along)" by Chevelle

And here we are folks, although we have had some music prior to this from Chevelle from the Daredevil and Punisher soundtracks (both awesome songs btw), this is the first single from the upcoming LP “This Type of Thinking Could Do Us In”. Pete is still in his typical Drop B, and is very simple to play like most of their stuff. This is a somewhat fixed version of the other tab(s), although the Chorus harmonics or whatever you want to call them are still vague, this sounds a lot more like the real thing. And, some of the chords have been fixed. Enjoy!

TABBED BY: Joshua Brown (joshbrown89@hotmail.com)

-----------------------------------------------------------------------

Drop B Tuning (Low to High):  B F# B E G# C#

Intro:

C#||----------------------------------||
G#||----------------------------------||
E ||---9-9-9-9-9-9--/--7-7-7-7-7-7---||
B ||---x-x-x-x-x-x--/--x-x-x-x-x-x---||
F#||---7-7-7-7-7-7--/--5-5-5-5-5-5---||
B ||----------------------------------||   2X

Verse:

C#||---------------------------------------||
G#||---------------------------------------||
E ||---10-10-10-10-10-10-/--9-9-9-9-9-9---||
B ||---x--x--x--x--x--x--/--x-x-x-x-x-x---||
F#||---8--8--8--8--8--8--/--7-7-7-7-7-7---||
B ||---------------------------------------||
     PM**********************************

Pre-Chorus:
[ Tab from: http://www.guitartabs.cc/tabs/c/chevelle/vitamin_r_leading_us_along_tab.html ]
C#||--------------------------------|-------------------------------||
G#||--------------------------------|-------------------------------||
E ||--------------------------------|-------------------------------||
B ||--------------------------------|-------------------------------||
F#||--------------------------------|-------------------------------||
B ||--0-0-0-0-0---3-3-3-3-—-5-5-5-5-|-0-0-0-0---5-5-5-5---3-3-3-3-3-||
     PM******************************************************


Chorus:

C#||-----------------------------------------------------||
G#||-----------------------------------------------------||
E ||----------2-/-3-3---------------------------2-/-3-3--||
B ||--8-8-8-8---------8-8-8-8h--10-10---5—5-5-5----------||
F#||--8-8-8-8---------8-8-8-8h--10-10---5—5-5-5----------||
B ||--8-8-8-8---------8-8-8-8h--10-10---5-5-5-5----------||


C#||-------------------||
G#||-------------------||
E ||-------------------||
B ||--5-5-5-5h---3-3---||
F#||--5-5-5-5h---3-3---||
B ||--5-5-5-5h---3-3---||



Bridge:

C#||-----------------------------------------------------------------||
G#||-----------------------------3--------3--------3--------3--------||
E ||-10-10-10-10----7-7-7-7-----2--------2--------2--------2--------||
B ||-10-10-10-10----5—5-5-5----0--0-0---0—-0-0---0---0-0--0—--0-0--||
F#||--8—-8--8--8----5—5-5-5-------0-0------0-0-------0-0------0-0--||
B ||--8--8--8--8----5-5-5-5-------0-0------0-0-------0-0------0-0--||
                                    PM**     PM**      PM**     PM**

TABBED BY: Joshua Brown (joshbrown89@hotmail.com)

If there are any mistakes/suggestions please e-mail me. Thanks!

Remember to visit the Chevelle Band website @ www.chevelleinc.com
Comments