Chevelle - Until Youre Reformed Chords & Tabs

 

Until Youre Reformed Chords & Tabs

Chevelle Chords & Tabs

Version: 2 Type: Tab 0 ratings
1 star 2 stars 3 stars 4 stars 5 stars
comments

Until Youre Reformed Tab

   
Song: Until You’re Reformed
Artist: Chevelle
Album: Daredevil Soundtrack
Tab Written By: Spyd3r

	I saw these guys on Ozzfest, they kicked ass. They played this song and
I was probably the only one singing it… but I was watching them play this song
and this is what I could make out from the twelfth row… Sounds good…

Tuning: C-G-C-F-A-D

Intro- Let the harmonics ring

D|--------------------------------------------------|
A|--------------------------------------------------|
F|--------------------------------------------------|
C|--------------------------(5)---------------------|  x4
G|----------(5)----(4)------------------------------|
C|---(4)--------------------------------------------|

Verse

D|----------------------------------------------------|
A|----------------------------------------------------|
F|----------------------------------------------------|
C|----------------------------------------------------| x4
G|----------------------------------------------------|
C|-00--0000--2222---2222---3333---3333---3333---33330-|

Chorus

D|-----------------------------------------------------|
A|-----------------------------------------------------|
F|-11-11--------11-11---------11-11----------7-6-6-----|
C|-x--x---------x--x-----------x--x----------x-x-x-----| x4
G|-9--9---------9--9-----------9--9----------5-4-4-----|
C|---------0-00----------0-00---------0-00-------------|
Pm         ....          ....         ....

Post Chorus Riff

D|-------------------------------------------|
A|-------------------------------------------|
F|--------1111------6-6-------9-9------------|
C|--0-0-0--x-x---0--x-x---0---x-x------------|
G|--0-0-0--9-9---0--4-4---0---7-7------------|
C|--0-0-0--------0--------0------------------|
Pm  .....        .        .

Repeat Intro, Then
[ Tab from: http://www.guitartabs.cc/tabs/c/chevelle/until_youre_reformed_tab_ver_2.html ]
D|-----------------------------------------------------------|
A|-----------------------------------------------------------|
F|-----------------------------------------------------------|
C|-------0-0-0-----------------------------------------------| 
G|-------0-0-0-----------------------------------------------|
C|-------0-0-0-----------------------------------------------|
Pm       .....

Repeat Verse, Chorus, Post Chorus Riff, Then,

Breakdown

D|-------------------------------------------------------|
A|-------------------------------------------------------|
F|-------------------------------------------------------|
C|-0---Let Ring----------------0 let ring----------------| 
G|-0---Let Ring------------------------------------------|
C|-0---Let Ring-----------------------Brief-Pickslide----|

Post chorus riff, then Breakdown(both x3) then intro again, then post chorus riff

Rest for next verse,then

D|--------------------------------------------------|
A|--------------------------------------------------|
F|--12------------11--------------------------------|
C|--x-a lot, then--x---a lot more-------------------| x4
G|--10-------------9--------------------------------|
C|--------------------------------------------------|

Then repeat chorus, and on 4th repetition…

D|-----------------------------------------------|
A|-----------------------------------------------|
F|--14-----------------11--12--14----------------|
C|--x--a lot of times -x---x---x---a lot of times|  only do the 12x14’s a lot 
G|--12-----------------9---10--12----------------|
C|-----------------------------------------------|

Repeat chorus twice, then post chorus riff then end on C,G,andC ringing open

I Tried to make this as easy to read as possible, it sounds alright… but don’t
bitch, cuz this is my first tab. Enjoy this kick ass song! Questions? Email me…
Kornf4n4t1c@aol.com

					- Spyd3r
Comments