Chevelle - Until Youre Reformed Chords & Tabs

 

Until Youre Reformed Chords & Tabs

Chevelle Chords & Tabs

Version: 1 Type: Tab 0 ratings
1 star 2 stars 3 stars 4 stars 5 stars
comments

Until Youre Reformed Tab

   
#----------------------------------PLEASE NOTE---------------------------------#
#This file is the author's own work and represents their interpretation of the-#
#song. You may only use this file for private study, scholarship, or research.-#
#------------------------------------------------------------------------------#

Chevelle - Until You're Reformed
Submitted By: Benji
EMail: shibbykornfreak7@aol.com

Tuning: Drop D (D A D G B E)

The Harmonics in this song are awesome. hope you enjoy!!
[ Tab from: http://www.guitartabs.cc/tabs/c/chevelle/until_youre_reformed_tab.html ]
Intro 
(These notes are all harmonics. just let them ring)
E|------------------------||
B|------------------------||
G|------------------------||
D|------(7)--------(5)----||
A|-----------(4)----------||
D|--(9)-------------------||



Verse
E|-------------------------------------||
B|-------------------------------------||
G|-------------------------------------||
D|-0-0-00-0-0--2-22-2-2--4-44-4-4------||
A|-0-0-00-0-0--0-00-0-0--0-00-0-0------||
D|-0-0-00-0-0--0-00-0-0--0-00-0-0------||
  P.M.---------------------------|


Chorus(its not really a chorus but it can be)
this is just notes not rythym
E|-----------------------------------------------||
B|-----------------------------------------------||
G|--11--11---7/6----------11-11---6-6---9-9------||
D|---x---x---x/x----0-0-0--x--x---x-x---x-x------||
A|---9---9---5/4----0-0-0--9--9---4-4---7-7------||
D|---0---0----------0-0-0-------0-----0----------||
                    P.M.-
Comments