Chevelle - The Red Chords & Tabs

 

The Red Chords & Tabs

Chevelle Chords & Tabs

Version: 8 Type: Tab 0 ratings
1 star 2 stars 3 stars 4 stars 5 stars
comments

The Red Tab

   
Song: The Red
Artist: Chevelle
Album: Wonder What's Next
Tabbed by: Christian / silent_warrior_@hotmail.com

PM - Palm mute
/ - Slide up


Tuning: C# F# B E G# C# 


Intro
|--------------------------------------------|
|--------------------------------------------|
|--------------------------------------------| x2
|----------5-5--5-5-5-----------10-10--------|
|-7--7-9---5-5--5-5-5--7--7-9---10-10--7-9---|
|-0--0-0-0-3-3--0-3-0--0--0-0-0--8--8--0-0-0-|


Verse
|--------------------------------------------|
|--------------------------------------------|
|--------------------------------------------| x4
|----------5-5--5-5-5-----------10-10--------|
|-7--7-9---5-5--5-5-5--7--7-9---10-10--7-9---|
|-0--0-0-0-3-3--0-3-0--0--0-0-0--8--8--0-0-0-|
PM-  - - - - -  - - -  -  - - -  -  -  - - -


Chorus - Do the slides the 2nd time only
|-----------------------------------------------------|
|-----------------------------------------------------|
|-------------------------7--7-7-7-7-7-7-7------------| x2
|-2--2-2-2-2--5--5-5-5-5--7--7-7-7-7-7-7-7--5/7-7-7-7-|
|-2--2-2-2-2--5--5-5-5-5--5--5-5-5-5-5-5-5--5/7-7-7-7-|
|-0--0-0-0-0--3--3-3-3-3--------------------3/5-5-5-5-|


|--------------------------------------------|
|--------------------------------------------|
|--------------------------------------------| x2
|----------5-5--5-5-5-----------10-10--------|
|-7--7-9---5-5--5-5-5--7--7-9---10-10--7-9---|
|-0--0-0-0-3-3--0-3-0--0--0-0-0--8--8--0-0-0-|


Verse
|--------------------------------------------|
|--------------------------------------------|
|--------------------------------------------| x8
|----------5-5--5-5-5-----------10-10--------|
|-7--7-9---5-5--5-5-5--7--7-9---10-10--7-9---|
|-0--0-0-0-3-3--0-3-0--0--0-0-0--8--8--0-0-0-|
PM-  - - - - -  - - -  -  - - -  -  -  - - -

[ Tab from: http://www.guitartabs.cc/tabs/c/chevelle/the_red_tab_ver_8.html ]
Chorus - Do the slides the 2nd time only
|-----------------------------------------------------|
|-----------------------------------------------------|
|-------------------------7--7-7-7-7-7-7-7------------| x2
|-2--2-2-2-2--5--5-5-5-5--7--7-7-7-7-7-7-7--5/7-7-7-7-|
|-2--2-2-2-2--5--5-5-5-5--5--5-5-5-5-5-5-5--5/7-7-7-7-|
|-0--0-0-0-0--3--3-3-3-3--------------------3/5-5-5-5-|


Bridge (tremolo pick notes)
|---------------------------------------------|
|---------------------------------------------|
|---------------------------------------------| x2
|-9-9-9-9-9-9-9-9-9--0-0-0-0--2-2-2-2-2-2-2-2-|
|---------------------------------------------|
|---------------------------------------------|


Chorus - Do the slides the 2nd and 4th time only
|-----------------------------------------------------|
|-----------------------------------------------------|
|-------------------------7--7-7-7-7-7-7-7------------| x4
|-2--2-2-2-2--5--5-5-5-5--7--7-7-7-7-7-7-7--5/7-7-7-7-|
|-2--2-2-2-2--5--5-5-5-5--5--5-5-5-5-5-5-5--5/7-7-7-7-|
|-0--0-0-0-0--3--3-3-3-3--------------------3/5-5-5-5-|


|--------------------------------------------|
|--------------------------------------------|
|--------------------------------------------| x4
|----------5-5--5-5-5-----------10-10--------|
|-7--7-9---5-5--5-5-5--7--7-9---10-10--7-9---|
|-0--0-0-0-3-3--0-3-0--0--0-0-0--8--8--0-0-0-|


|-----------------------------------------------------|      |-----|
|-----------------------------------------------------|      |-----|
|-----------------------------------------------------| x1   |-----| x1
|-10-10-x-x-x-x-10-10-x-x-x-x-9-9-x-x-x-x-9-9-x-x-x-x-|      |--2--|
|-10-10-x-x-x-x-10-10-x-x-x-x-9-9-x-x-x-x-9-9-x-x-x-x-|      |--2--|
|--8--8-x-x-x-x--8--8-x-x-x-x-7-7-x-x-x-x-7-7-x-x-x-x-|      |--0--|


|--------------------------------------------|
|--------------------------------------------|
|--------------------------------------------| x3
|----------5-5--5-5-5-----------10-10--------|
|-7--7-9---5-5--5-5-5--7--7-9---10-10--7-9---|
|-0--0-0-0-3-3--0-3-0--0--0-0-0--8--8--0-0-0-|
Comments