Chevelle - The Red Chords & Tabs

 

The Red Chords & Tabs

Chevelle Chords & Tabs

Version: 3 Type: Tab 0 ratings
1 star 2 stars 3 stars 4 stars 5 stars
comments

The Red Tab

   
C#:
C# F# B E G# C#

Intro: 6/8 time

x2
e---------------------------------------------------------
b---------------------------------------------------------
g---------------------------------------------------------
d---------------------------------------------------------
a-7---7-9-------5---5-5--5-0--7---7-9------10--1010-10-0--
e-0---0-0--0-0--3---3-0--3-0--0---0-0--0-0--8---8-0--8-0--

Verse 1: x3

Fig. 1
pm
e---------------------------------------------------------
b---------------------------------------------------------
g---------------------------------------------------------
d---------------------------------------------------------
a-7---7-9--7-0--5---5-5--5-0--7---7-9--7-7-10--1010-10-0--
e-0---0-0--0-0--3---3-0--3-0--0---0-0--0-0--8---8-0--8-0--

then,
pm
e---------------------------------------------------------
b---------------------------------------------------------
g---------------------------------------------------------
d---------------------------------------------------------
a-7---7-9--7-0--5---5-5--5-0--7---7-9--7-7-10-------------
e-0---0-0--0-0--3---3-0--3-0--0---0-0--0-0--8-------------

Chorus:

e---------------------------------------------------------
b---------------------------------------------------------
g---------------------------------------------------------
d-2-----2----2--2---2--2------5-----5----5---5--5---------
a-2-----2----2--2---2--2------5-----5----5---5--5-----5---
e-0-----0----0--0---0--0---0--3-----3----3---3--3--/5-5---

e---------------------------------------------------------
b---------------------------------------------------------
g-7-----7----7--7---7--7---7--7----7----7----7--7--7-7----
d-7-----7----7--7---7--7---7--7----7----7----7--7--7-7----
a-5-----5----5--5---5--5---5--5----5----5----5--5--5-5-0--
e-5-----5----5--5---5--5---5--5----5----5----5--5--5-5-0--

e---------------------------------------------------------
b---------------------------------------------------------
g---------------------------------------------------------
d-2-----2----2--2---2--2------5-----5----5---5--5---------
a-2-----2----2--2---2--2------5-----5----5---5--5-----5---
e-0-----0----0--0---0--0-0-0--3-----3----3---3--3--/5-5---

e---------------------------------------------------------
b---------------------------------------------------------
g-7-----7----7--7---7--7--------------4---4--4--4--4-4----
d-7-----7----7--7---7--7--------------4---4--4--4--4-4--0-
a-5-----5----5--5---5--5---0--0h2--2--2---2--2--2--2-2--0-
e-5-----5----5--5---5--5----------------------------------

...Seeing red again...
x2
e---------------------------------------------------------
b---------------------------------------------------------
g---------------------------------------------------------
d---------------------------------------------------------
a-7---7-9--7-0--5---5-5--5-0--7---7-9------10--1010-10-0--
e-0---0-0--0-0--3---3-0--3-0--0---0-0--0-0--8---8-0--8-0--

Verse 2:
x7, pm
e---------------------------------------------------------
b---------------------------------------------------------
g---------------------------------------------------------
d---------------------------------------------------------
a-7---7-9--7-0--5---5-5--5-0--7---7-9--7-7-10--1010-10-0--
e-0---0-0--0-0--3---3-0--3-0--0---0-0--0-0--8---8-0--8-0--
[ Tab from: http://www.guitartabs.cc/tabs/c/chevelle/the_red_tab_ver_3.html ]
then,
pm
e---------------------------------------------------------
b---------------------------------------------------------
g---------------------------------------------------------
d---------------------------------------------------------
a-7---7-9--7-0--5---5-5--5-0--7---7-9--7-7-10-------------
e-0---0-0--0-0--3---3-0--3-0--0---0-0--0-0--8-------------

Interlude: w/ Fig. 1

w/ Fast modulation effect

e-----------------------------------------------------------------
b-----------------------------------------------------------------
g-----------------------------------------------------------------
d-9-9--9-9--9-9--9-9--9-9--9-9--9-9--9-9--9-9--9-9--9-0--0-0---0--
a-----------------------------------------------------------------
e-----------------------------------------------------------------

e-----------------------------------------------------------------
b-----------------------------------------------------------------
g-----------------------------------------------------------------
d-2-2--2-2--2-2--2-2--2-2--2-2--2-2--2-2--2-2--2-2--2-2--2-2------
a-----------------------------------------------------------------
e------------------------------------------------------------/12\-

e-----------------------------------------------------------------
b-----------------------------------------------------------------
g-----------------------------------------------------------------
d-9-9--9-9--9-9--9-9--9-9--9-9--9-9--9-9--9-9--9-9--9-0--0-0---0--
a-----------------------------------------------------------------
e-----------------------------------------------------------------

e-----------------------------------------------------------------
b-----------------------------------------------------------------
g-----------------------------------------------------------------
d-2-2--2-2--2-2--2-2--2-2--2-2--2-2--2-2--2-2--2-2--2-2--2-2------
a-----------------------------------------------------------------
e-----------------------------------------------------------------

Chorus: x2

Outro:
x3
e---------------------------------------------------------
b---------------------------------------------------------
g---------------------------------------------------------
d---------------------------------------------------------
a-7---7-9-------5---5-5--5-0--7---7-9------10--1010-10-0--
e-0---0-0--0-0--3---3-0--3-0--0---0-0--0-0--8---8-0--8-0--

e---------------------------------------------------------
b---------------------------------------------------------
g---------------------------------------------------------
d---------------------------------------------------------
a-7---7-9--7----5---5-5--5-0--7---7-9--7-7-10--1010-10-0--
e-0---0-0--0-0--3---3-0--3-0--0---0-0--0-0--8---8-0--8-0--

e------------------------------------------------------------
b------------------------------------------------------------
g------------------------------------------------------------
d------------------------------------------------------------
a-1010--x-x--x-x-1010--x-x--x-x--9-9--x-x--x-x--9-9-x--------
e--8-8--x-x--x-x--8-8--x-x--x-x--7-7--x-x--x-x--7-7-x-3/10\--

gtr. 2

E5 let ring

x2
e---------------------------------------------------------
b---------------------------------------------------------
g---------------------------------------------------------
d---------------------------------------------------------
a-7---7-9-------5---5-5--5-0--7---7-9------10--1010-10-0--
e-0---0-0--0-0--3---3-0--3-0--0---0-0--0-0--8---8-0--8-0--

e-----------------------------------------------------------------
b-----------------------------------------------------------------
g-----------------------------------------------------------------
d-----------------------------------------------------------------
a-7---7-9--7-0--5---5-5--5-0--7---7-9------10--10----x-0--7-------
e-0---0-0--0-0--3---3-0--3-0--0---0-0--0-0--8---8----0-0--0-------


that’s all

Comments