Chevelle - The Red Chords & Tabs

 

The Red Chords & Tabs

Chevelle Chords & Tabs

Version: 15 Type: Tab 0 ratings
1 star 2 stars 3 stars 4 stars 5 stars
comments

The Red Tab

Artist: Chevelle             E-mal at shuvel88@yahoo.com
Date: Oct. 9, 2002
Album: Wonder What's Next
Song: The Red
Tabbed by: Art Corella


this song is dropped D tuning, I Promise this sound better than the other guys
[ Tab from: http://www.guitartabs.cc/tabs/c/chevelle/the_red_tab_ver_15.html ]
E---------------------------------------------------------------------|
B---------------------------------------------------------------------|
G---------------------------------------------------------------------|
D-0-0-2-0-0-3-3-3-3-3-3-0-0-2-0-0-5-5-5-5-5-5-------------------------|
A-0-0-0-0-0-3-3-3-3-3-3-0-0-0-0-0-5-5-5-5-5-5-------------------------|
D-0-0-0-0-0-3-3-3-3-3-3-0-0-0-0-0-5-5-5-5-5-5-------------------------|

this is the same for the chorus

this is for the verse, palm mute this riff

E----------------------------------------------------------------------|
B----------------------------------------------------------------------|
G----------------------------------------------------------------------|
D----------------------------------------------------------------------|
A----------------------------------------------------------------------|
D-0-0-7-0-0-3-3-3-3-3-0-0-7-0-0-5-5-5-5-5------------------------------|
Comments