Chevelle - The Red Chords & Tabs

 

The Red Chords & Tabs

Chevelle Chords & Tabs

Version: 10 Type: Tab 0 ratings
1 star 2 stars 3 stars 4 stars 5 stars
comments

The Red Tab

---------------------------------------------------------------------------
			   THE RED - CHEVELLE
---------------------------------------------------------------------------
Tabbed by: Rachel
Email: rach_721_01@hotmail.com

Tuning: All guitars tune down one and one half steps (low to high C# F# B E G# C#)
 

 Alright, this is my first tab, but I think it's pretty good.
 You can get the strumming if you listen to the song, it's fairly easy.
  
  Intro:
  Guitar 1 (w/ distortion)
C#|-----------------------------------------------------------|
F#|-----------------------------------------------------------|
B |-----------------------------------------------------------|
E |-------------5--------------10-----------------------------| do this 
G#|----7-9-7-0--5-----7-9-7-0--10-----------------------------|  twice..
C#|--0----------3---0-----------8-----------------------------|

  Intro:
  Guitar 2 (w/ distortion)
C#|-----------------------------------------------------------|
F#|-----------------------------------------------------------|
B |-----------------------------------------------------------|
E |--2---5---2---10---2---5---2---10------- ------------------| do this 
G#|--2---5---2---10---2---5---2---10--------------------------|  twice..
C#|--0---3---0----8---0---3---0----8--------------------------|

   Verse:
   Guitar 1 (w/ distortion)
C#|---------------------------------------------------------------------------|
F#|---------------------------------------------------------------------------|
B |---------------------------------------------------------------------------|
E |-------------------5----------------10--------------------5------------10--|
G#|----------7-9-7-0--5-----7-9-7-0----10------------7-9-7-0 5----7-9-7-0 10--|
C#|--------0----------3---0-------------8----------0---------3--0----------8--|
  they say freak..          when you're singled out
  
   Verse:
   Guitar 2 (w/ distortion)
C#|---------------------------------------------------------------------------|
F#|---------------------------------------------------------------------------|
B |---------------------------------------------------------------------------|
E |--------2------5------2-------------10---------2---5---2---10--------------|
G#|--------2------5------2-------------10---------2---5---2---10--------------|
C#|--------0------3------0--------------8---------0---3---0----8--------------|
  they say freak..         when you're singled out
  
  Verse cont:	
  Guitar 1 (w/ distortion)
C#|---------------------------------------------------------------------------|
F#|---------------------------------------------------------------------------|
B |---------------------------------------------------------------------------|
E |--------------5------------  10-------------------------5-------------10---|
G#|-----7-9-7-0--5-----7-9-7-0--10----------------7-9-7-0--5----7-9-7-0--10---|
C#|---0----------3---0-----------8--------------0----------3--0 ----------8---|
  the red..            well it filters through..

   Verse cont:	
   Guitar 2 (w/ distortion)
C#|---------------------------------------------------------------------------|
F#|---------------------------------------------------------------------------|
B |---------------------------------------------------------------------------|
E |---2------5--------2---------10---------------2-----5-----2-----10---------|
G#|---2------5--------2---------10---------------2-----5-----2-----10---------|
C#|---0------3--------0----------8---------------0-----3-----0------8---------|
  the red..             well it filters through..

   Chorus:
   Guitar 1 & 2 (same)
C#|---------------------------------------------------------------------------|
F#|---------------------------------------------------------------------------|
B |------------------------------7-------------------------------7--------4---|
E |------2--------5--------------7---------------2----5----------7--------4---|
G#|------2--------5--------------5---------------2----5----------5--------2---|
C#|------0--------3--------------5---------------0----3----------5------------|
  so lay down...   the threat is real.. when his sight  goes red again..

   Chorus cont:
   Guitar 1 (w/ distortion)
C#|---------------------------------------------------------------------------|
F#|---------------------------------------------------------------------------|
B |---------------------------------------------------------------------------|
E |------------5---------------------10--------------5-------------------10---|
G#|---7-9-7-0--3------------7-9-7-0--10-----7-9-7-0--5----------7-9-7-0--10---|
C#|-0----------3----------0-----------8---0----------3--------0-----------8---|
       seeing   red again                  seeing  red again

   Chorus cont:
   Guitar 2 (w/ distortion)
C#|---------------------------------------------------------------------------|
F#|---------------------------------------------------------------------------|
B |---------------------------------------------------------------------------|
E |--2-------5---------2------10------2-------5--------2------10--------------|
G#|--2-------5---------2------10------2-------5--------2------10--------------|
C#|--0-------3---------0-------8------0-------3--------0-------8--------------|
      seeing red again                 seeing red again

   Verse 2:
   Guitar 1 (w/ distortion)
C#|---------------------------------------------------------------------------|
F#|---------------------------------------------------------------------------|
B |---------------------------------------------------------------------------|
E |---------------------5-------------10-----------------5--------------10----|
G#|------------7-9-7-0--5---7-9-7-0---10--------7-9-7-0--5-----7-9-7-0--10----|
C#|----------0----------3--0-----------8------0----------3---0-----------8----|
  this change               he wont contain  

   Verse 2:
   Guitar 2 (w/ distortion)
C#|---------------------------------------------------------------------------|
F#|---------------------------------------------------------------------------|
B |---------------------------------------------------------------------------|
E |----2-------5-----2----10--------------2-----5----2----10------------------|
G#|----2-------5-----2----10--------------2-----5----2----10------------------|
C#|----0-------3-----0-----8--------------0-----3----0-----8------------------|
  this change           he wont contain

   Verse 2 cont:
   Guitar 1 (w/ distortion)
C#|---------------------------------------------------------------------------|
F#|---------------------------------------------------------------------------|
B |---------------------------------------------------------------------------|
E |---------------5-------------10--------------------------5-------------10--|
G#|------7-9-7-0--5----7-9-7-0--10-----------------7-9-7-0--5----7-9-7-0--10--|
C#|----0----------3--0-----------8---------------0----------3--0-----------8--|
  slip away           to        clear your mind

   Verse 2 cont:
   Guitar 2 (w/ distortion)
C#|---------------------------------------------------------------------------|
F#|---------------------------------------------------------------------------|
B |---------------------------------------------------------------------------|
E |----2-----5------2---10----------------2-----5----2----10------------------|
G#|----2-----5------2---10----------------2-----5----2----10------------------|
C#|----0-----3------0----8----------------0-----3----0-----8------------------|
  slip away         to   clear your mind
[ Tab from: http://www.guitartabs.cc/tabs/c/chevelle/the_red_tab_ver_10.html ]
   Verse 2 cont:
   Guitar 1 (w/ distortion)
C#|---------------------------------------------------------------------------|
F#|---------------------------------------------------------------------------|
B |---------------------------------------------------------------------------|
E |-------------------5-------------10----------------------5--------------10-|
G#|----------7-9-7-0--5----7-9-7-0--10-------------7-9-7-0--5-----7-9-7-0--10-|
C#|--------0----------3--0-----------8-----------0----------3---0-----------8-|
  when asked              who       made it show (made it show)

   Verse 2 cont:
   Guitar 2 (w/ distortion)
C#|---------------------------------------------------------------------------|
F#|---------------------------------------------------------------------------|
B |---------------------------------------------------------------------------|
E |----2-----5---- 2------10------------2----5--------------2----10-----------|
G#|----2-----5-----2------10------------2----5--------------2----10-----------|
C#|----0-----3-----0-------8------------0----3--------------0-----8-----------|
  when asked        who   made it show       (made it show)

   Verse 2 cont:
   Guitar 1 (w/ distortion)
C#|---------------------------------------------------------------------------|
F#|---------------------------------------------------------------------------|
B |---------------------------------------------------------------------------|
E |---------------5--------------10----------------------5-------------10-----|
G#|-----7-9-7-0---5-----7-9-7-0--10-------------7-9-7-0--5----7-9-7-0--10-----|
C#|---0-----------3---0-----------8-----------0----------3--0-----------8-----|
  the truth           he can't   send to most

   Verse 2 cont:
   Guitar 2 (w/ distortion)
C#|---------------------------------------------------------------------------|
F#|---------------------------------------------------------------------------|
B |---------------------------------------------------------------------------|
E |---2-------5-----2-------------10---------2-----5-----2----10--------------|
G#|---2-------5-----2-------------10---------2-----5-----2----10--------------|
C#|---0-------3-----0--------------8---------0-----3-----0-----8--------------|
  the truth          he can't   send to most

    Chorus:
    Guitar 1 & 2 (same)
C#|---------------------------------------------------------------------------|
F#|---------------------------------------------------------------------------|
B |------------------------------7-------------------------------7-------4----|
E |---2----------5---------------7--------------2-----5----------7-------4----|
G#|---2----------5---------------5--------------2-----5----------5-------2----|
C#|---0----------3---------------5--------------0-----3----------5------------|
   so lay down..  the threat is real.. when his sight   goes red again..

   Solo:
   Guitar 1 (distortion & modulation effect)
   fast picking
C#|---------------------------------------------------------------------------|
F#|---------------------------------------------------------------------------|
B |---------------------------------------------------------------------------|
E |99999999999999999999--------------------99999999999999999999---------------|
G#|--------------------77777777777777777777--------------------77777777777777-|
C#|---------------------------------------------------------------------------|
   Solo:
   Guitar 2
   ok as you can see, guitar one goes back to the 9th fret, about halfway through
   it the second guitar comes in...and you just hold out the note..
C#|---------------------------------------------------------------------------|
F#|-------------------------------------------------15-------15----15------15-|
B |---------------------------------------------------------------------------|
E |---------------------------------------------------------------------------|
G#|---------------------------------------------------------------------------|
C#|---------------------------------------------------------------------------|
   Chorus: X2
   Guitar 1 & 2 (same part)
C#|---------------------------------------------------------------------------|
F#|---------------------------------------------------------------------------|
B |------------------------------7------------------------------7---------4---|
E |------2------5----------------7-------------2------5---------7---------4---|
G#|------2------5----------------5-------------2------5---------5---------2---|
C#|------0------3----------------5-------------0------3---------5-------------|
  so lay down..  the threat is real.. when his sight   goes red again..

   Chorus cont: X8
   Guitar 1 (distortion)
C#|---------------------------------------------------------------------------|
F#|---------------------------------------------------------------------------|
B |---------------------------------------------------------------------------|
E |--------------5---------------------10-------------------------------------|
G#|-----7-9-7-0--5-----------7-9-7-0---10-------------------------------------|
C#|---0----------3---------0------------8-------------------------------------|
   seeing        red again seeing red  again
   
   Chorus cont: X8
   Guitar 2 (distortion)
C#|---------------------------------------------------------------------------|
F#|---------------------------------------------------------------------------|
B |---------------------------------------------------------------------------|
E |--2---------5---------2----------10----------------------------------------|
G#|--2---------5---------2----------10----------------------------------------|
C#|--0---------3---------0-----------8----------------------------------------|
        seeing red again  seeing red again
   Chorus cont: 
   Guitar 1 and 2 (same)
   ok so when he's yelling seeing red again, on the 8th time it does this.. 
   i'll start it on the 8th time..
C#|---------------------------------------------------------------------------|
F#|---------------------------------------------------------------------------|
B |---------------------------------------------------------------------------|
E |------------10----9--------------------------------------------------------|
G#|--7-9-7-0---10----9--------------------------------------------------------|
C#|0------------8----7--------------------------------------------------------|
   seeing red again.. 
    
   Outro:
   Guitar 1
C#|----------------------------------------------------------------------------|
F#|----------------------------------------------------------------------------|
B |----------------------------------------------------------------------------|
E |--------------------------------------------------------------5-----------10|
G#|-----------------------------------------------------7-9-7-0--5---7-9-7-0-10|
C#|-0-------------------------------------------------0----------3- 0---------8|
    ^ let ring.. they say freak..when you're singled out
   Outro cont:
   Guitar 1
C#|---------------------------------------------------------------------------|
F#|---------------------------------------------------------------------------|
B |---------------------------------------------------------------------------|
E |------------------------5--------------10----------------------------------|
G#|---------------7-9-7-0--5-----7-9-7-0--10----------------------------------|
C#|-------------0----------3---0----------8--0--------------------------------|
   but the red..                it filters   through... let the last note ring...

 Alright so that's it. If you really loved it, or really hated it, or have any 
 comments about it, feel free to email me.
Comments