Chevelle - The Red Chords & Tabs

 

The Red Chords & Tabs

Chevelle Chords & Tabs

Version: 1 Type: Bass Tab 0 ratings
1 star 2 stars 3 stars 4 stars 5 stars
comments

The Red Bass Tab

Chevelle The Red
its a wierd tuning so the others were off 
i put this up cuz every respectful bassist should know it right

 Verse
 E ----------------------------------------------
 B ----------------------------------------------
 F#--7--7-9-7---------------7--7-9-7-------------
 C#-----------0-3-3-0-3-0------------0-8-8-8-8---
[ Tab from: http://www.guitartabs.cc/tabs/c/chevelle/the_red_btab.html ]
                                         so lay
 E ----------------------------------------------
 B ----------------------------------------------
 F#--7--7-9-7---------------7--7-9-7-------------
 C#-----------0-3-3-0-3-0------------0-8---------

  Chorus
2x  
     down                  the threat is  real
 E -------------------------------------------------------
 B -------------------------------------------------------
 F#---------------------------------------5--5-5-55---2-2--2-2
 C#--0--0---0-0-0-0--0--3--3-3-3-3-3-0---------------------
only do the 2's the second time
thats basically it get he cd to find out the order
peace and enjoy

    
Comments