Chevelle - Send The Pain Below Chords & Tabs

 

Send The Pain Below Chords & Tabs

Chevelle Chords & Tabs

Version: 4 Type: Tab 0 ratings
1 star 2 stars 3 stars 4 stars 5 stars
comments

Send The Pain Below Tab

   
                ***            CHEVELLE                  ***
                ***        SEND THE PAIN BELOW           ***
                ***         WONDER WHATS NEXT            ***

I know this song is tuned at  C-Sharp Standard (low to high C# F# B E G# C#), 
but I tried to tab this in standard tuning...

-INTRO(x1)
e----------------------------------------------
B----------------------------------------------
G-------------------------8-8-8-8-8-8----------
D-------------------------x-x-x-x-x-x-2-2-2-2-2
A-9-9-9-9-9-9-6-6-6-6-6-6-9-9-9-9-9-9-2-2-2-2-2
E-7-7-7-7-7-7-4-4-4-4-4-4-7-7-7-7-7-7-0-0-0-0-0-

-Pre verse-
 hold both
e-------
B-------
G------8
D------x
A-6----9
E-4----7

-Verse 1-clean
e----------------------
B----------------------
G-8-8-8-8-8-8-8-8-8-8-6- \
D-x-x-x-x-x-x-x-x-x-x-x   |(x4)
A-6-6-6-6-6-6-6-6-6-6-4  /
E----------------------

e---------------------------------------------------- 
B----------------------------------------------------
G-11-11-11-11-11-8-8-8-8-8-8- 8-8-8-8-8-4-4-4-4-4-4-4  \
D-x--x--x--x--x--x-x-x-x-x-x- x-x-x-x-x-x-x-x-x-x-x-x   |(x2)
A-9--9--9--9--9--6-6-6-6-6-6- 6-6-6-6-6-2-2-2-2-2-2-2  /
E----------------------------------------------------

-Chorus 1(x2)-Distortion
e----------------------------------------------
B----------------------------------------------
G-------------------------8-8-8-8-8-8----------
D-------------------------x-x-x-x-x-x-2-2-2-2-2
A-9-9-9-9-9-9-6-6-6-6-6-6-9-9-9-9-9-9-2-2-2-2-2
E-7-7-7-7-7-7-4-4-4-4-4-4-7-7-7-7-7-7-0-0-0-0-0-

-Verse 2-clean
e----------------------
B----------------------
G-8-8-8-8-8-8-8-8-8-8-6- \
D-x-x-x-x-x-x-x-x-x-x-x   |(x4)
A-6-6-6-6-6-6-6-6-6-6-4  /
E----------------------

e---------------------------------------------------- 
B----------------------------------------------------
G-11-11-11-11-11-8-8-8-8-8-8- 8-8-8-8-8-4-4-4-4-4-4-4  \
D-x--x--x--x--x--x-x-x-x-x-x- x-x-x-x-x-x-x-x-x-x-x-x   |(x2)
A-9--9--9--9--9--6-6-6-6-6-6- 6-6-6-6-6-2-2-2-2-2-2-2  /
E----------------------------------------------------
[ Tab from: http://www.guitartabs.cc/tabs/c/chevelle/send_the_pain_below_tab_ver_4.html ]
-Chorus 2(x2)-Distortion
e----------------------------------------------
B----------------------------------------------
G-------------------------8-8-8-8-8-8----------
D-------------------------x-x-x-x-x-x-2-2-2-2-2
A-9-9-9-9-9-9-6-6-6-6-6-6-9-9-9-9-9-9-2-2-2-2-2
E-7-7-7-7-7-7-4-4-4-4-4-4-7-7-7-7-7-7-0-0-0-0-0-

Interlude clean (x2) im not sure about the interlude...
e--------------------------
B--------------------------
G--------------------------
D-4-4-5-5-2-2-4-4-7-5-5-2-2
A-4-4-5-5-2-2-4-4-7-5-5-2-2
E-2-2-3-3-0-0-2-2-5-3-3-0-0

Interlude distortion(x10)
e--------------------------
B--------------------------
G--------------------------
D-4-4-5-5-2-2-4-4-7-5-5-2-2
A-4-4-5-5-2-2-4-4-7-5-5-2-2
E-2-2-3-3-0-0-2-2-5-3-3-0-0

Chorus 3(x2)distortion-im not sure if its the verse or this,try both...
this is what i think it is,but im not sure

e----------------------------------------------
B----------------------------------------------
G-11-11-11-11-11-11-8-8-8-8-8-8-8-8-4-4-4-4-4-4   <-pinky
D-x---x--x-x--x--x--x-x-x-x-x-x-x-x-x-x-x-x-x-x
A-9---9--9-9--9--9--6-6-6-6-6-6-6-6-2-2-2-2-2-2   <-ring finger
E-7---7--7-7--7--7--4-4-4-4-4-4-4-4-0-0-0-0-0-0   <-index finger

-END ON-
e--            e--
B--            B--
G-8            G-8
D-x     or     D-x  not sure
A-6            A-6
E-4            E--        

   IF YOU WANT TO CORRECT THIS TAB CORRECT IT ON THE TOP OF THIS PAGE

                               LYRICS
I liked,
Having hurt,
So send the pain below,
Where I need it.

You used to beg me,
To take,
Care of things,
And smile at the thoughts,
Of me failing.

But long before,
Having hurt,
I'll send the pain below,
I'll send the pain below.

Much like suffocating,
Much like suffocating,
Much like suffocating (I'll send the pain below),
Much like suffocating (I'll send the pain below).

You used run me away,
All while laughing,
Then cry about that fact,
Til my returns.

But long before,
Having hurt,
I'll send the pain below,
I'll send the pain below.

Much like suffocating,
Much like suffocating,
Much like suffocating (I'll send the pain below),
Much like suffocating (I'll send the pain below),
Much like suffocating!

I can'y feel my chest (chest, chest),
Anymore,
Drop down,
Cause I am, (?)
I can't feel my chest (chest, chest) (RAHH!!!.)
Drop down! (RAHHHHHH!!!.)

I liked,
Having hurt,
So send the pain below,
So send the pain below (Much like suffocating) (I liked),
So send the pain below (Much like suffocating) (Having hurt),
So send the pain below (Much like suffocating),
So send the pain below (Much like suffocating),
So send the pain below.
Comments