Chevelle - Send The Pain Below Chords & Tabs

 

Send The Pain Below Chords & Tabs

Chevelle Chords & Tabs

Version: 1 Type: Bass Tab 0 ratings
1 star 2 stars 3 stars 4 stars 5 stars
comments

Send The Pain Below Bass Tab

   
Tuning, B#,F#,D,G

(Intro)
G |-------------------------------------------------------------|
D |-------------------------------------------------------------|
F#|-------------------------------------------------------------|
B#|-12-12-12-12-12-12-9-9-9-9-9-9-0-0-0-0-0-0-0-5-5-5-5-5-5-5-5-|

Play until "Where I need it"
G |------------------|
D |------------------|
F#|-----------2--2-2-|
B#|-0--0--0-0--------|

(Verse)
G |-------------------------|
D |-------------------------|
F#|-------------------------|
B#|-0-0-0-0-0-4-4-4-4h2-2-2-|X4

G |-------------------------------------------------|
D |-------------------------------------------------|  x2
F#|-------------------------------------------------|
B#|-0-0-0-0-0-0-9-9-9-9-9-9-0-0-0-0-0-0-5-5-5-5-5-5-|

(Chorus)
G |-------------------------------------------------------------|
D |-------------------------------------------------------------|
F#|-------------------------------------------------------------|
B#|-12-12-12-12-12-12-9-9-9-9-9-9-0-0-0-0-0-0-0-5-5-5-5-5-5-5-5-|

G |----------------------------------------------------------|
D |----------------------------------------------------------|
F#|-2-2-2-2-2-2----------------------------------------------|
B#|-------------9-9-9-9-9-9-0-0-0-0-0-0-0-5-5-5-5-5-5-5-5-0--|

(Verse)
G |-------------------------|
D |-------------------------|  x4
F#|-------------------------|
B#|-0-0-0-0-0-4-4-4-4h2-2-2-|

G |-------------------------------------------------|
D |-------------------------------------------------|  x2
F#|-------------------------------------------------|
B#|-0-0-0-0-0-0-9-9-9-9-9-9-0-0-0-0-0-0-5-5-5-5-5-5-|
[ Tab from: http://www.guitartabs.cc/tabs/c/chevelle/send_the_pain_below_btab.html ]
G |-------------------------------------------------------------|
D |-------------------------------------------------------------|
F#|-------------------------------------------------------------|
B#|-12-12-12-12-12-12-9-9-9-9-9-9-0-0-0-0-0-0-0-5-5-5-5-5-5-5-5-|

G |-------------------------------------------------------|
D |-------------------------------------------------------|
F#|-2-2-2-2-2-2-------------------------------------------|
B#|-------------9-9-9-9-9-9-0-0-0-0-0-0-0-5-5-5-5-5-5-5-5-|

(solo)
G |---------------------------------|    G |------|
D |---------------------------------| x2 D |------| 
F#|-3x-3x-2-4-4-4-4-4-2-2/7-7-7-7-7-|    F#|-2-4--| 
B#|---------------------------------|    B#|------|

G |---------------------------|
D |---------------------------|  x8
F#|---------------------------|
B#|-0-2-2-2-2-0-2/5-5-5-5-5-0-|

(Chorus)
G |-------------------------------------------------------------|
D |-------------------------------------------------------------|
F#|-------------------------------------------------------------|
B#|-12-12-12-12-12-12-9-9-9-9-9-9-0-0-0-0-0-0-0-5-5-5-5-5-5-5-5-|

G |-------------------------------------------------------|
D |-------------------------------------------------------|
F#|-2-2-2-2-2-2-------------------------------------------|
B#|-------------9-9-9-9-9-9-0-0-0-0-0-0-0-5-5-5-5-5-5-5-5-|

(Outro)
G |-------------------------------------------------------------|
D |-------------------------------------------------------------|
F#|-------------------------------------------------------------|
B#|-12-12-12-12-12-12-9-9-9-9-9-9-0-0-0-0-0-0-0-5-5-5-5-5-5-5-5-|

G |--------------------------------------------------------|
D |--------------------------------------------------------|
F#|-2-2-2-2-2-2--------------------------------------------|
B#|-------------9-9-9-9-9-9-0-0-0-0-0-0-0-5-5-5-5-5-5h4-4-0|

Thankse, please rate it after you learn it
Comments