Chevelle - Point Number One Chords & Tabs

 

Point Number One Chords & Tabs

Chevelle Chords & Tabs

Version: 1 Type: Tab 0 ratings
1 star 2 stars 3 stars 4 stars 5 stars
comments

Point Number One Tab

Date: Mon, 16 Oct 2000 18:02:38 -0400
From: Steven 
Subject: c/chevelle/point_1.crd Group:
Chevelle
Album: Point#1
Song: Point#1
Tabbed by: Steven Carey (aakornnut999@excite.com)
Dropped D Tuning

Verse:
(clean)
D:--555555-----         D:--555555\1111--|
A:--555555-PM-- x7 then A:--555555\1111--|
D:--555555-----         D:--555555\1111--|

Chorus:
(distortion)

I'm not going to number the strums cause that would be dumb

e:-----------------|
B:-----------------|
G:---------555555--|
D:--111111-555555--|
A:--111111-333333--|
D:--111111---------|
[ Tab from: http://www.guitartabs.cc/tabs/c/chevelle/point_number_one_tab.html ]
Fill:
e:-----------------------|
B:-----------------------|
G:--7(((-----------------|
D:-------000000--000000--| and so on
A:-------000000--000000--|
D:-------000000--000000--|

Interlude:
slower
e:-----------------------------------------|
B:-------------------------3~-2------------|
G:--33333333333333333------2~-3------------|
D:--33333333333333333-0000------0000-0333--|
A:--11111111111111111-0000------0000-0333--|
D:--------------------0000------0000-0333--|

Solo:
(wah)
G:----------888---------888--5555555555555--|
D:------------------------------------------|
A:--8888-666666-8888-666666--3333333333333--|

Outro:
e:----------------------------------|
B:----------------------------------|
G:-------5555--    G:---------3\\---|
D:-------5555-- x3 D:--0-33-0-3\\---|
A:--0000-------    A:--0-33-0-1\\---|
D:--0000-------    D:--0-33-0-------|
Comments