Chevelle - Point 1 Chords & Tabs

 

Point 1 Chords & Tabs

Chevelle Chords & Tabs

Version: 1 Type: Bass Tab 0 ratings
1 star 2 stars 3 stars 4 stars 5 stars
comments

Point 1 Bass Tab

   
Artist: Chevelle
Song: Point #1
Album: Point #1
Tabbed By: NoFace
E Mail/ Msn Messenger: linkin_crawling@hotmail.com

TUNING IS:

D,A,D,G 

Sorry for the guys who listen the song by the video in kazaa player or other
stuff, but this song is for the album version, dwnl the mp3 anyway :)


Verse 1: Only Guitar And Chords

G/-----------------
D/-----------------
A/-----------------
D/-----------------


Chorus: 00:43 "Cause he'll say pay for it"

G/----------------------------
D/----------------------------
A/-------------3-3-3-3-3-3-3*-
D/-1-1-1-1-1-1*---------------

Verse 2: NOTICE: the verse start before but the bass play after the guitar
played two times the part of verse....

01:29 "It seems I've gained the world but I have nothing"  

G/--------
D/--------
A/--------
D/5-5-5-5- X7  
                               
G/--------                     
D/--------                     
A/--------                     
D/1-1-1-1- X1 

Chorus 2: 01:58  "Cause he'll say pay for it"

G/----------------------------
D/----------------------------
A/-------------3-3-3-3-3-3-3*-
D/-1-1-1-1-1-1*---------------

Bridge: 02:31 
[ Tab from: http://www.guitartabs.cc/tabs/c/chevelle/point_1_btab.html ]
G/--------------------
D/--------------------
A/--------------------
D/-0-0--0-0--0-0--0-0- 


G/------------------------------------------------------------22222
D/-----------------------------------------------------------------
A/--------------------1-1-1-1-1-1-1-1-1-1-1-1-1-1-1-1-1------------
D/-0-0--0-0-0--3-3-3-------------------------------------0-0-------  X2

In the guitar Solo: 03:11

G/--------------------------------------------------------------------------
D/--------------------------------------------------------------------------
A/--8-8-8-8--6-6-6-6-6-6--8-8-8-8--6-6-6-6-6-6---3-3-3-3-3-3-3-3-3-3-3-3-3--
D/-------------------------------------------------------------------------- X2

Chorus 03:28 "We Need Healing"

G/----------------------------
D/----------------------------
A/-------------3-3-3-3-3-3-3*-
D/-1-1-1-1-1-1*---------------

Outro: around 04:00 "RAHHHHH"

G/-----------
D/-----------
A/-----------
D/--0-0-0-0--

Then:

G/---------------
D/---------------
A/-------5-5-5-5-
D/--0-0----------  

And Finish With:

G/------------------------------
D/------------------------------
A/------------------------------
D/-0--3-3--0---6/5/4/3/2/1/**---


*The Number to doing this note is note exact.. its a lot of time I can say..
**Juste slide to do a good end :)
Comments