Chevelle - Mia Chords & Tabs

 

Mia Chords & Tabs

Chevelle Chords & Tabs

Version: 3 Type: Tab 0 ratings
1 star 2 stars 3 stars 4 stars 5 stars
comments

Mia Tab

   
Song - Mia
Artist - Chevelle

Great Song, played in Drop D (like all of Point #1)

Intro/Verse - Clean - Repeat 6 times, and slide from the 12th fret in to the chorus.
E|--------------------------------------|----------------------------------|
B|--------------------------------------|----------------------------------|
G|----11-11-11-11/9-9-9-x---------------|--x-----------------------x-------|
D|----11-11-11-11/9-9-9-x-9-9-9-9/7-7-7-|--x-5-5-5-5/7-7-7-7/9-9-9-x-5-7---|
A|--9-9--9--9--9/-7-7-7-x-9-9-9-9/7-7-7-|--x-5-5-5-5/7-7-7-7/9-9-9-x-5-7-5-|
D|--9-------------------x-9-9-9-9/7-7-7-|--x-5-5-5-5/7-7-7-7/9-9-9-x-5-7-5-|
    1 e  &  a  2  e & a 3 e & a 4 e & a    1 e & a 2 e & a 3 e & a 4 e & a

Chorus - Distorted - Repeat 4 times until second verse.
[ Tab from: http://www.guitartabs.cc/tabs/c/chevelle/mia_tab_ver_3.html ]
E|------------------------|----------------------------------|
B|------------------------|----------------------------------|
G|--------3----------3----|----------------------------------|
D|--2--2-------2--2-------|--5-5-5-5-5-5-5-5/7-7-7-7-7/9-7-5-|
A|--2--2-------2--2-------|--5-5-5-5-5-5-5-5/7-7-7-7-7/9-7-5-|
D|--2--2-------2--2-------|--5-5-5-5-5-5-5-5/7-7-7-7-7/9-7-5-|
    1  &  2    3  &  4       1 e & a 2 e & a 3 e & a 4 e & a    

Verse 2 - Clean - Repeat 6 times - Then slide from 12th fret back in to distorted chorus

E|--------------------------------------|----------------------------------|
B|--------------------------------------|----------------------------------|
G|----11-11-11-11/9-9-9-x---------------|--x-----------------------x-------|
D|----11-11-11-11/9-9-9-x-9-9-9-9/7-7-7-|--x-5-5-5-5/7-7-7-7/9-9-9-x-5-7---|
A|--9-9--9--9--9/-7-7-7-x-9-9-9-9/7-7-7-|--x-5-5-5-5/7-7-7-7/9-9-9-x-5-7-5-|
D|--9-------------------x-9-9-9-9/7-7-7-|--x-5-5-5-5/7-7-7-7/9-9-9-x-5-7-5-|
    1 e  &  a  2  e & a 3 e & a 4 e & a    1 e & a 2 e & a 3 e & a 4 e & a

Interlude after second chorus - Distorted - Repeat 4 times

E|------------------------------|-------------------------|
B|------------------------------|-------------------------|
G|------------------------------|--5/7-7--6--7----7--9/---|
D|-----2-2----2-2----2-2----2-2-|--x---x--x--x----x--9/---|
A|--2------2------2------2------|--3/5-5--4--5----5--7/---|
D|--2------2------2------2------|-------------------------|

Now just repeat the verse 8 times distorted, and end on

D|-2-|
a|-2-|
D|-2-|

Comments, money, world domination plans you can send to rosswale17@gmail.com
Comments