Chevelle - Mia Chords & Tabs

 

Mia Chords & Tabs

Chevelle Chords & Tabs

Version: 2 Type: Bass Tab 0 ratings
1 star 2 stars 3 stars 4 stars 5 stars
comments

Mia Bass Tab

Artist: Chevelle
Song: Mia
Album: Point #1
Instrument Type: Bass
E-mail me/msn messenger:linkin_crawling@hotmail.com


Intro: 00:00 : nobass, only vocals and guitar

G/-------------------------
D/-------------------------
A/-------------------------
E/-------------------------

Chorus: 00:25     Why, I made the face that bugs you


G/-------------------------------------------
D/-------------------------------------------
A/-------------------------------------------
E/-0-0--0-0--3-3-3-3-3-3-3-3--5-5-5-5-5-5-5-5


Verse: 00:50    Spyglass scans the field 
[ Tab from: http://www.guitartabs.cc/tabs/c/chevelle/mia_btab_ver_2.html ]
G/-------------------------------------------------------------------
D/-4-4-4-4---2-2-2-2-------------------------------------------------
A/---------------------2-2-2-2---------------------------------------
E/-------------------------------3-3-3-3---5-5-5-5--7-7-7-7--3-3-3-3-


Chorus: 01:06    Why, I made the face that bugs you 

G/-------------------------------------------
D/-------------------------------------------
A/-------------------------------------------
E/-0-0--0-0--3-3-3-3-3-3-3-3--5-5-5-5-5-5-5-5


Bridge: 01:22  (No Lycris)

G/-----------------------------------------------
D/-----------------------------------------------
A/----------------------------0--0-0--0-0--0--0--
E/-0-0-0-0-0-0-0-0-0-0-0-0-----------------------


Outro 01:38   Spyglass scans the field 

G/-------------------------------------------------------------------
D/-4-4-4-4---2-2-2-2-------------------------------------------------
A/---------------------2-2-2-2---------------------------------------
E/-------------------------------3-3-3-3---5-5-5-5--7-7-7-7--3-3-3-3-
Comments