Chevelle - Long Chords & Tabs

 

Long Chords & Tabs

Chevelle Chords & Tabs

Version: 1 Type: Chords 0 ratings
1 star 2 stars 3 stars 4 stars 5 stars
comments

Long Chords

Date: Mon, 16 Oct 2000 18:06:24 -0400
From: Steven 
Subject: c/chevelle/long.crd

Group: Chevelle
Album: Point#1
Song: Long
Tabbed by: Steven Carey (aakornnut999@excite.com)
Dropped D Tuning

Intro:
D:--33-33-33-33-33-33-33-3543--|
A:--33-33-33-33-33-33-33-3543--|
D:--33-33-33-33-33-33-33-3543--|
                         /   \
                         muted
Bridge:
D:--0~----
A:--0~-PM-
D:--0~----

Verse:
(clean)
B:------3-----3------3-----3--|
G:--3-3-3-3-3-3--3-3-3-3-3-3--|
D:--3-3-3-3-3-3--3-3-3-3-3-3--|
A:--1-1-----------------------|
D:---------------5-5----------|

Chorus:
D:--3p2p0-3p2p0-3p2p0-3p2p0-xxx--|
A:--3p2p0-3p2p0-3p2p0-3p2p0-xxx--|
D:--3p2p0-3p2p0-3p2p0-3p2p0-xxx--|
[ Tab from: http://www.guitartabs.cc/tabs/c/chevelle/long_crd.html ]
Interlude:
Fast
A:--4h5----------------------|
D:------0h5p0-0-5h7-0h3p0-0--| a couple times

then
e:-------------------------------------|
B:--3333333333-------3333333333--------|
G:--2222222222-2-5-5-2222222222--------|
D:--0000000000-------0000000000-3-3-3--|
A:--0000000000-------0000000000-3-3-3--|
D:--0000000000-------0000000000-3-3-3--|

Fill:
Muted
D:--555---------------555----------------------|
A:------555-----------333----------------------| a couple times
D:----------555-0h3h5-----5p3p0-3p0-3h5p3p0-0--|

then
G:------777-----777-5--------------------|
D:--555-777-555-777-5-5p3p0-3p0-3h5p3p0--|
A:--555-----555-----3-5p3p0-3p0-3h5p3p0--| a couple times
D:--555-----555-------5p3p0-3p0-3h5p3p0--|

then
D:--3h5p3p0-3p0-3h5p3p0-3p0-3h5p3p0-3p0-3-3-3--|
A:--3h5p3p0-3p0-3h5p3p0-3p0-3h5p3p0-3p0-3-3-3--|
D:--3h5p3p0-3p0-3h5p3p0-3p0-3h5p3p0-3p0-3-3-3--|
Comments