Chevelle - Grab Thy Hand Chords & Tabs

 

Grab Thy Hand Chords & Tabs

Chevelle Chords & Tabs

Version: 5 Type: Tab 0 ratings
1 star 2 stars 3 stars 4 stars 5 stars
comments

Grab Thy Hand Tab

   
Artist:Chevelle
Song:Grab Thy Hand
Album:Wonder whats next
Tabbed by:Thrasher
email:larsthrasher87@aol.com
Tuning:Im not sure what the tuning is  but i think you tune down 2 steps and  and then into drop d.
Email me if you have any comments!Or if you know what this tuning is called!
HM=Hammer On
Intro:

c#-------------------------------------------------------|
g#-------------------------------------------------------|
e -------------------------------------------------------|
b ----------------------0----------------x-x-x-x-x-x-x-x-| (x4)
f#---------------------------------------x-x-x-x-x-x-x-x-|
b 0-0-0-0-0-0-0-0-0HM-1---0-0-0-0-0-0-0-0x-x-x-x-x-x-x-x-|
                                     "Grab Thy hand and....."

c#-----------------------|
g#-----------------------|
e 9-----9----9---9--9-10-|
b --7-----7----7--7------|
f#----0----0----0--0-----|
b -----------------------|
  "through...."

Verse:
c#------         c#---------------------|
g#------         g#---------------------|
e 10----         e ---------------------|
b ---0-- (x12)   b x-x-x-x-x-x-xxxxxxxx-|
f#------         f#x-x-x-x-x-x-xxxxxxxx-|
b -----0         b x-x-x-x-x-x-xxxxxxxx-|
                    "God, how i long..."
[ Tab from: http://www.guitartabs.cc/tabs/c/chevelle/grab_thy_hand_tab_ver_5.html ]
c#-----------------------------|
g#-----------------------------|
e -----------------------------|
b 0-0-x-x-10-0-0-x-x-8-0-0-8-7-|
F#0-0-x-x-10-0-0-x-x-8-0-0-8-7-|
b 0-0-x-x-10-0-0-x-x-8-0-0-8-7-|
    "walk......."

c#----------------------------------------------------------------------|
g#----------------------------------------------------------------------|
e ----------------------------10----10----------------------------------|
b 3-3-3-3-3-3-5-3-3-3-3-3-3-5---------------3-3-3-3-3-3-5-3-3-3-3-3-3-5-|
f#3-3-3-3-3-3-5-3-3-3-3-3-3-5----0------0---3-3-3-3-3-3-5-3-3-3-3-3-3-5-|
b 3-3-3-3-3-3-5-3-3-3-3-3-3-5------0------0-3-3-3-3-3-3-5-3-3-3-3-3-3-5-|
             "MAY I COME IN....."
c#-----------------------------------------------|
g#-----------------------------------------------|
e -----------------------------------------------|
b ---------------------0x-x-x-x-x-x-x-xxxxxxxxxx-|
f#----------------------x-x-x-x-x-x-x-xxxxxxxxxx-|
b 0-0-0-0-0-0-0-0-0HM-1-x-x-x-x-x-x-x-xxxxxxxxxx-|
              "Just this once....."
Bridge:

c#------------------------------|
g#------------------------------|
e ------------------------------|
b 0-0-x-x-10-0-0-x-x-12-0-0-3-5-| (repeat until end)
f#0-0-x-x-10-0-0-x-x-12-0-0-3-5-|
b 0-0-x-x-10-0-0-x-x-12-0-0-3-5-|
Comments