Chevelle - Grab Thy Hand Chords & Tabs

 

Grab Thy Hand Chords & Tabs

Chevelle Chords & Tabs

Version: 2 Type: Tab 0 ratings
1 star 2 stars 3 stars 4 stars 5 stars
comments

Grab Thy Hand Tab

   
#----------------------------------PLEASE NOTE---------------------------------#
#This file is the author's own work and represents their interpretation of the #
#song. You may only use this file for private study, scholarship, or research. #
#------------------------------------------------------------------------------##

Aritst - Chevelle
Song - Grab Thy Hand
Album - Wonder What's Next
Author of Tab - Brian Roman
Author of Song - Pete Loeffler (Chevelle's singer)

Tuning-	B F# B E G# C#


Riff 1                                          PM----------|
|-----------------------------------------------------------|
|-----------------------------------------------------------|
|-----------------------------------------------------------|
|-----------------------------------------------------------|
|-----------------------------------------------------------|
|-0-0--0-0--0-0--0-0--0h1p0--0-0--0-0--0-0--0-0--0000000000-|


                             PM------------------------|
|--------------------------------------------------------|
|--------------------------------------------------------|
|--------------------------------------------------------|You can figure 
|----------------------------0-0--0-0--0-0--000000-1-00--|out the rhythm
|----------------------------0-0--0-0--0-0--000000-1-00--|for the last part
|-0-0--0-0--0-0--0-0--0h1p0--0-0--0-0--0-0--000000-1-00--|


|--------------------------------|-----------|
|--------------------------------|-----------|
|--------------------------------|-9/10------|Repeat a few times
|-0-0--0-0--0-0--0-0--00000-1-00-|-x/x-------|
|-0-0--0-0--0-0--0-0--00000-1-00-|-7/8-------|
|-0-0--0-0--0-0--0-0--00000-1-00-|-----------|

Riff 2
|-----------|
|-----------|
|-----------|Repeat quite a few times
|-8--0------|
|-----------|
|------0----|
[ Tab from: http://www.guitartabs.cc/tabs/c/chevelle/grab_thy_hand_tab_ver_2.html ]
Riff 3
 PM-----------------------------------------------------------|
|-----------------------------|---------------------------------|
|-----------------------------|---------------------------------|
|-----------------------------|---------------------------------|
|-----------------------------|-0-0--0-0--0-0--0-0--00000-1-00--|
|-----------------------------|-0-0--0-0--0-0--0-0--00000-1-00--|
|-0-0--0-0--0-0--0-0--00000000|-0-0--0-0--0-0--0-0--00000-1-00--|

Riff 4
|--------------------------------|--------------------------------|
|--------------------------------|--------------------------------|
|--------------------------------|--------------------------------|
|-0-0--0h10-10--0--0h8--0h3h5p3--|--------------------------------|
|-0-0--0h10-10--0--0h8--0h3h5p3--|--------------------------------|
|-0-0--0h10-10--0--0h8--0h3h5p3--|--0-0--0h10-10--0--0h8--0h3h5p3-|

Riff 5
        
|-----------------------|
|-----------------------|
|-----------------------|Play Riff 1 and 2 after this
|-3-3-3--3-3-3--8--0----|
|-3-3-3--3-3-3----------|
|-3-3-3--3-3-3-------0--|

Riff 6
 PM-------------------------|
|--------------------------------|
|--------------------------------|
|--------------------------------|
|--------------------------------|
|--------------------------------|
|-0-0--0h10-10--0h12--0h3h5p3----|

Riff 7
|-----------------------------|--------|
|-----------------------------|--------|
|-----------------------------|--------|
|-0-0--0h10-10--0h12--0h3h5p3-|--10----|hold at the end
|-0-0--0h10-10--0h12--0h3h5p3-|--10----|
|-0-0--0h10-10--0h12--0h3h5p3-|--10----|




***************************************************************************************
* Generated using Power Tab Editor by Brad Larsen - http://powertab.guitarnetwork.org *
***************************************************************************************
Comments